Gotye - Somebody I Used To Know Chords & Tabs

 

Somebody I Used To Know Chords & Tabs

Gotye Chords & Tabs

Version: 1 Type: Bass Tab 0 ratings
1 star 2 stars 3 stars 4 stars 5 stars
comments

Somebody I Used To Know Bass Tab

G|--------------5--------------------------------5---------------------7---|
D|------55----7----7-5--------------------55---7-----7--5--------------7---|
A|--55-----8--------------88-77-55-3---55----8--------------5-5-8-5-5------|
E|-------------------------------------------------------------------------|

G|-------------------------------------|
D|-------------------------------------|
A|-----5-5-------3-3-------------------|
E|-------------------------------------|
[ Tab from: http://www.guitartabs.cc/tabs/g/gotye/somebody_i_used_to_know_btab.html ]
G|-------5----------------------5--------------------|
D|---7-----7--5------------7------7--5---------------|
A|-----------------5--7--5---------------5---5-------|
E|---------------------------------------------------|

G|-------------------------------------|
D|-------------------------------------|
A|-----5-5-------3-3-------------------|
E|-------------------------------------|

G|----------------------------------------------|
D|----------------------------------------------|
A|-----5-5-------3-3------1-1------33-----------|
E|----------------------------------------------|
Comments