Gotthard - She Goes Down Chords & Tabs

 

She Goes Down Chords & Tabs

Gotthard Chords & Tabs

Version: 2 Type: Tab 0 ratings
1 star 2 stars 3 stars 4 stars 5 stars
comments

She Goes Down Tab

#----------------------------------PLEASE NOTE---------------------------------#
#This file is the author's own work and represents their interpretation of the #
#song. You may only use this file for private study, scholarship, or research. #
#------------------------------------------------------------------------------#

From:   Claus [clpo0000@stud.uni-sb.de]
Sent:   Tuesday, December 16, 1997 2:52 PM

Title:  She goes down
Artist: Gotthard
Album:  Dial Hard (1994) BMG Ariola
transscribed: Claus Poerschke

    Intro                       6x  Verse
E------------------|------------||----|-----|-----------------|------------
B------------------|------------||----|-----|-----------------|------------
G---0--------------|--0--------*||----|-----|--0--------------|------------
D---0--2--2--2--2--|--0--2--2--*||-2--|--2--|--0--2--2--2--2--|------------
A------2--2--2--2--|-----2--2---||\2--|--2--|-----2--2--2--2--|------------
E------------------|------------||-0--|--0--|-----------------|------------


              4x  Bridge
E-------------||-----------|-----|------------------------|----------------
B-------------||-----------|-----|------------------------|----------------
G---0--------*||--x--x--5--|--5--|------------------------|----------------
D---0--2--2--*||--x--x--5--|--5--|------------------------|----------------
A------2--2---||--x--x--3--|--3--|------------------------|----------------
E-------------||-----------|-----|\0--0--3p0--0--0--0--0--|----------------



E-------------------------|-----------|-----|-----|-----|------------------
B-------------------------|-----------|-----|-----|-----|------------------
G-------------------------|--x--x--5--|--5--|--4--|--4--|------------------
D-------------------------|--x--x--5--|--5--|--4--|--4--|------------------
A-------------------------|--x--x--3--|--3--|--2--|--2--|------------------
E---3p0--2p0--0--0--0--0--|-----------|-----|-----|-----|------------------


    Chorus
E------------------|-----------|--------|--------------------------|-------
B------------------|-----------|--------|--------------------------|-------
G---0--------------|--0--------|--------|--------------------------|-------
D---0--2--2--2--2--|--0--2--2--|--7--5--|--------------------------|-------
A------2--2--2--2--|-----2--2--|--7--5--|--------------------------|-------
E------------------|-----------|--5--3--|--0--0--3--0--5--3--0--0--|-------


                                                  *
E------------------|-----------|--------|-----|----------------------------
B------------------|-----------|--------|-----|----------------------------
G---0--------------|--0--------|--------|-----|----------------------------
D---0--2--2--2--2--|--0--2--2--|--7--5--|--2--|--2-------------------------
A------2--2--2--2--|-----2--2--|--7--5--|--2--|--2-------------------------
E------------------|-----------|--5--3--|--0--|--0-------------------------

Interludium
[ Tab from: http://www.guitartabs.cc/tabs/g/gotthard/she_goes_down_tab_ver_2.html ]
         Rhythm Guitar   4x  Lead Guitar
E---||-------------------||------------|------------------|----------------
B---||-------------------||------------|------------------|----------------
G---||*-----------------*||------------|------------------|----------------
D---||*-----------------*||------------|------------------|----------------
A---||-------------------||--4^--4--2--|------------------|----------------
E---||---0--0--3--0--0---||------------|--0--0--2^--2--0--|----------------



E---------------------|---------------------5p3--|-------------------------
B---------------------|-------------3/5--3-------|-------------------------
G---------------------|--2--2--4p2---------------|-------------------------
D---------------2-----|--------------------------|-------------------------
A---------2--------5--|--------------------------|-------------------------
E---0--0-----5--------|--------------------------|-------------------------


Repeat from Verse to *



       Rhythm Guitar under Solo    6x
E---|-----------------|------------||-----------|-----|--------------------
B---|-----------------|------------||-----------|-----|--------------------
G---|--0--------------|--0--------*||--x--x--5--|--5--|--------------------
D---|--0--2--2--2--2--|--0--2--2--*||--x--x--5--|--5--|--------------------
A---|-----2--2--2--2--|-----2--2---||--x--x--3--|--3--|--------------------
E---|-----------------|------------||-----------|-----|\0------------------



E---------------------------|------------------------|-----------|---------
B---------------------------|------------------------|-----------|---------
G---------------------------|------------------------|--x--x--5--|---------
D---------------------------|------------------------|--x--x--5--|---------
A---------------------------|------------------------|--x--x--3--|---------
E---\0--0--3p0--0--0--0--0--|--3p0--2p0--0--0--0--0--|-----------|---------



E------|------------------------|------------------------|-----------|-----
B------|------------------------|------------------------|-----------|-----
G---5--|------------------------|------------------------|--x--x--5--|-----
D---5--|------------------------|------------------------|--x--x--5--|-----
A---3--|------------------------|------------------------|--x--x--3--|-----
E------|\0--0--3p0--0--0--0--0--|--3p0--2p0--0--0--0--0--|-----------|-----


                        w WahWah                   tr    4x
E------|-----|-----||---------------------------|--------||----------------
B------|-----|-----||---------------------------|--------||----------------
G---5--|--4--|--4--||*--0--------------0--------|--2p0--*||----------------
D---5--|--4--|--4--||*-----2--2--2--2-----2--2--|-------*||----------------
A---3--|--2--|--2--||---------------------------|--------||----------------
E------|-----|-----||---------------------------|--------||----------------


chorus 4 times


                                           4x
E---||---------|---------------------------||--------|--------|------------
B---||---------|---------------------------||--------|--------|------------
G---||*--------|--------------------------*||--------|--------|------------
D---||*--7--5--|--------------------------*||--2--2--|--2--2--|--2---------
A---||---7--5--|---------------------------||--2--2--|--2--2--|--2---------
E---||---5--3--|--0--0--3--0--5--3--0--0---||--0--0--|--0--0--|--0---------



Form:
Intro
Verse
Bridge
Chorus
Interludium
Verse
Bridge
Chorus
Solo
Chorus
Comments