Gotthard - One Life One Soul Chords & Tabs

 

One Life One Soul Chords & Tabs

Gotthard Chords & Tabs

Version: 2 Type: Tab 0 ratings
1 star 2 stars 3 stars 4 stars 5 stars
comments

One Life One Soul Tab

   
#----------------------------------PLEASE NOTE---------------------------------#
#This file is the author's own work and represents their interpretation of the #
#song. You may only use this file for private study, scholarship, or research. #
#------------------------------------------------------------------------------#

Gotthard: One Life One Soul

[This was created by Kevin]

 (also intro - first two tab sections)
    Am               Am/G              F       G   Am   
E  :--------0--------|--------0-------|------------0---|--------------|
B  :--------1p-0---0-|1---------------|--------0---1---|----1p-0------|
G  :-------------2---|----0-----------|2-------0---2---|---------2----|
D  :----2------------|----------------|----3---0---2---|-----------2--|
A  :0----------------|----------------|------------0---|0-------------|
E  :-----------------|3---------------|1-------3-------|--------------|

    I've   been    waiting         all     my  life    



    Am               Am/G              F     G    Am   
E  :--------0--------|--------0-------|------------0---|--------------|
B  :--------1p-0---0-|1---------------|------0-----1---|----1p-0------|
G  :-------------2---|----0-----------|2-----0-----2---|---------2----|
D  :----2------------|----------------|------0-----2---|-----------2--|
A  :0----------------|----------------|------------0---|0-------------|
E  :-----------------|3---------------|1-----3---------|--------------|             

 

 
    Dm              Dm/C              G      
E  :1-------1-------|1-------1-------|--------3-------|--------3-------|
B  :----3-------3---|----3-------3---|3---------------|3---------------|
G  :--------2-------|--------2-------|----0-------0---|----0-------0---|
D  :0---------------|----------------|--------0-------|--------0-------|
A  :----------------|3---------------|----------------|----------------|
E  :----------------|----------------|3---------------|3---------------|



    C               C/B              Am                      (Am7)
E  :--------0-------|--------0-------|--------0-------|--------3-------|
B  :1---------------|3---------------|1---------------|1---------------|
G  :----0-------0---|----0-------0---|----2-------2---|----2-------2---|
D  :--------2-------|--------2-------|--------2-------|--------2-------|
A  :3---------------|2---------------|0---------------|0---------------|
E  :----------------|----------------|----------------|----------------|
 
 


    Dm              Dm/C             G
E  :1-------1-------|1-------1-------|--------3-------|--------3-------|
B  :----3-------3---|----3-------3---|3---------------|3---------------|
G  :--------2-------|--------2-------|----0-------0---|----0-------0---|
D  :0---------------|----------------|--------0-------|--------0-------|
A  :----------------|3---------------|----------------|----------------|
E  :----------------|----------------|3---------------|3---------------|

   

[ Tab from: http://www.guitartabs.cc/tabs/g/gotthard/one_life_one_soul_tab_ver_2.html ]
    C                C/B              Am                     (Am7)
E  :--------0-------|--------0-------|--------0-------|--------3-------|
B  :1---------------|3---------------|1---------------|1---------------|
G  :----0-------0---|----0-------0---|----2-------2---|----2-------2---|
D  :--------2-------|--------2-------|--------2-------|--------2-------|
A  :3---------------|2---------------|0---------------|0---------------|
E  :----------------|----------------|----------------|----------------|

    


    Dm                                G
E  :1-------1-------|1-------1-------|--------3-------|-----------3----|
B  :----3-------3---|----3-------3---|0---------------|------0h-1------|
G  :--------2-------|--------2-------|----0-------0---|---0------------|
D  :0---------------|0---------------|--------0-------|----------------|
A  :----------------|----------------|----------------|----------------|
E  :----------------|----------------|3---------------|3--3------------|
   
   

Chorus:
    C                C/B              Am     
E  :--------0-------|--------0-------|--------0-------|--------0-------|
B  :1---------------|3---------------|1---------------|1---------------|
G  :----0-------0---|----0-------0---|----2-------2---|----2-------2---|
D  :--------2-------|--------2-------|--------2-------|--------2-------|
A  :3---------------|2---------------|0---------------|0---------------|
E  :----------------|----------------|----------------|----------------|

 One life,    One soul      for - ever     

    G                F                Am               G
E  :--------3-------|--------1-------|--------0-------|--------3-------|
B  :0---------------|1---------------|1---------------|0---------------|
G  :----0-------0---|----2-------2---|----2-------2---|----0-------0---|
D  :--------0-------|--------3-------|--------2-------|--------0-------|
A  :----------------|----------------|0---------------|----------------|
E  :3---------------|1---------------|----------------|3---------------|

   Follow   me      Follow    me    

    C                C/B              Am                
E  :--------0-------|--------0-------|--------0-------|--------0-------|
B  :1---------------|3---------------|1---------------|1---------------|
G  :----0-------0---|----0-------0---|----2-------2---|----2-------2---|
D  :--------2-------|--------2-------|--------2-------|--------2-------|
A  :3---------------|2---------------|0---------------|0---------------|
E  :----------------|----------------|----------------|----------------|

 


    G                F                Em
E  :--------3-------|--------1-------|--------0-------|   
B  :0---------------|1---------------|0---------------|  
G  :----0-------0---|----2-------2---|----0-------0---|    Intro Riff
D  :--------0-------|--------3-------|--------2-------|
A  :----------------|----------------|----------------|
E  :3---------------|1---------------|0---------------|




Dm/C
-1- pointer 
-3- pinky 
-2- middle 
-0- 
-3- ring 
---

C/B
-0- 
-3-(pinky) 
-0- 
-0-
-2-(middle)
---
Comments