Gorillaz - White Light Chords & Tabs

 

White Light Chords & Tabs

Gorillaz Chords & Tabs

Version: 3 Type: Bass Tab 0 ratings
1 star 2 stars 3 stars 4 stars 5 stars
comments

White Light Bass Tab

WHITE LIGHT - Gorillaz

Tabbed By : Sam McCracken
e-mail: samuel.mccracken@gmail.com

Sorry the spacing isnt all great and stuff.           
Its my first tab ever.                                


[00:09] INTRO
G|-----------------------------|
D|-----------------------------|
A|-------0000-2----------------|
E|-----------------------------| x1

[00:11] MAIN RIFF
G|--------------------------------|
D|--------------------------------|
A|--------------5--5-7------------| 
E|----0-0------7--7-7-------------| x3

[00:21]
G|-----------------------------|
D|-----------------------------|
A|-------0000-2----------------|
E|-----------------------------| x1

[00:23] Break 1 x3

[00:34]
G|-----------------------------|
D|-----------------------------|
A|-------0000-2----------------|
E|-----------------------------| x1
[ Tab from: http://www.guitartabs.cc/tabs/g/gorillaz/white_light_btab_ver_3.html ]
[00:35] MAIN RIFF
G|--------------------------------|
D|--------------------------------|
A|--------------5--5-7------------| 
E|----0-0------7--7-7-------------| x3

[00:46]
G|-----------------------------|
D|-----------------------------|
A|-------0000-2----------------|
E|-----------------------------| x1

[00:48] MAIN RIFF
G|--------------------------------|
D|--------------------------------|
A|--------------5--5-7------------| 
E|----0-0------7--7-7-------------| x3

[00:59]
G|-----------------------------|
D|-----------------------------|
A|-------0000-2----------------|
E|-----------------------------| x1

[01:00]Break 2
 
[01:28] Riff 2 
G|----------------------|
D|----------------------|
A|----------------2-----|
E|--0-0-0-0-3-3-5-------| x3

[01:39] Break 3 

[01:40]
G|-------------------------------------|
D|-------------------------------------|
A|----------------2--------------------|
E|--0-0-0-0-3-3-5----0-0-0-0--3-3-5-3--| until the end
Comments