Gorillaz - Starshine Chords & Tabs

 

Starshine Chords & Tabs

Gorillaz Chords & Tabs

Version: 6 Type: Tab 0 ratings
1 star 2 stars 3 stars 4 stars 5 stars
comments

Starshine Tab

Song: Gorillaz - Starshine
Album: Gorillaz

tabbed by MightyAsgard


Intro
-----

e|---------------|----------------|---------------|---------------|
b|---------------|----------------|---------------|---------------|
g|---------------|----------------|---------------|---------------|
D|---------4-----|----------------|---------------|---------------| x3
A|-2-2-2-2-------|------4-2-0-----|---------4-----|------4--0-----|
E|---------------|-2--2-----------|-3-3-3-3-------|-3--3----------|


Verse
-----

e|---------------|----------------|---------------|---------------|
b|---------------|----------------|---------------|---------------|
g|---------------|----------------|---------------|---------------|
D|---------4-----|----------------|---------------|---------------| x3
A|-2-2-2-2-------|------4-2-0-----|---------4-----|------4--0-----|
E|---------------|-2--2-----------|-3-3-3-3-------|-3--3----------|

e|---------------|----------------|---------------|---------------|
b|---------------|----------------|---------------|---------------|
g|---------------|----------------|---------------|---------------|
D|---------4-----|----------------|---------------|---------------| x1
A|-2-2-2-2-------|------4-2-0-----|---------4-----|------4-4-0-0--|
E|---------------|-2--2-----------|-3-3-3-3-------|-3--3----------|

[ Tab from: http://www.guitartabs.cc/tabs/g/gorillaz/starshine_tab_ver_6.html ]
Interlude
-----
e|---------------|----------------|---------------|---------------|
b|---------------|----------------|---------------|---------------|
g|---------------|----------------|---------------|---------------|
D|---------------|---------4-2-0--|---------------|---------------| x1
A|---------------|-2-2-2-2--------|---------4-----|------4--0-----|
E|---------------|----------------|-3-3-3-3-------|-3--3----------|


Verse
-----

e|---------------|----------------|---------------|---------------|
b|---------------|----------------|---------------|---------------|
g|---------------|----------------|---------------|---------------|
D|---------4-----|----------------|---------------|---------------| x8
A|-2-2-2-2-------|------4-2-0-----|---------4-----|------4--0-----|
E|---------------|-2--2-----------|-3-3-3-3-------|-3--3----------|


Outro
-----

e|---------------|----------------|---------------|---------------|
b|---------------|----------------|---------------|---------------|
g|---------------|----------------|---------------|---------------|
D|---------4-----|----------------|---------------|---------------| x4  
A|-2-2-2-2-------|------4-2-0-----|---------4-----|------4--0-----|
E|---------------|-2--2-----------|-3-3-3-3-------|-3--3----------|

e|---------------|----------------|---------------|---------------|
b|---------------|----------------|---------------|---------------|
g|---------------|----------------|---------------|---------------|
D|---------4-----|----------------|---------------|---------------| x2  
A|-2-2-2-2-------|------4-2-0-----|---------4-----|------4--0-----|
E|---------------|-2--2-----------|-3-3-3-3-------|-3--3----------|


I think that this tab is 100% right. 
But if you find some mistakes contact me at 4@slitband.de
Comments