Gorillaz - Starshine Chords & Tabs

 

Starshine Chords & Tabs

Gorillaz Chords & Tabs

Version: 1 Type: Tab 0 ratings
1 star 2 stars 3 stars 4 stars 5 stars
comments

Starshine Tab

	
                  
#----------------------------------PLEASE NOTE---------------------------------#
#This file is the author's own work and represents their interpretation of the #
#song. You may only use this file for private study, scholarship, or research. #
#------------------------------------------------------------------------------##

	STARSHINE
		 -Gorillaz tabbed by ROB    [wirrmi@yahoo.de]

OK, that's my first tab, but I think it's right:

Tuning EADGBE
[ Tab from: http://www.guitartabs.cc/tabs/g/gorillaz/starshine_tab.html ]
|-------------------------------------------------------------------------------
|-------------------------------------------------------------------------------
|-------------------------------------------------------------------------------
|-------------------------------------------------------------------------------
|---------9-------9---5----------5-------5--0-----------------------------------
|-7-7-7-7---7-7-7--------3-3-3-3---3-3-3----------------------------------------



|-------------------------------------------------------------------------------
|-------------------------------------------------------------------------------
|-------------------------------------------------------------------------------
|-------------------------------------------------------------------------------
|---------9-------9-7--5----------5-------5--0----------------------------------
|-7-7-7-7---7-7-7--------3-3-3-3---3-3-3----------------------------------------


That's it, there are only some rythm variations but when you listen to the song
you'll get it.

for questions or suggestions mail me 

Comments