Gorillaz - Slow Country Chords & Tabs

 

Slow Country Chords & Tabs

Gorillaz Chords & Tabs

Version: 1 Type: Chords 0 ratings
1 star 2 stars 3 stars 4 stars 5 stars
comments

Slow Country Chords

   
--------------------------------------------------------------------------------
                            Slow Country - Gorillaz
--------------------------------------------------------------------------------

Tunning: Standard: EADGBe 
Tabbed by: Zero is great man.

Chord Diagram:
  (E-Natural) E  A   C  Gm
e|-0--------------------3--|
B|-0-------------2---1--3--|
G|-0----------1--2---0--4--|
D|-0----------2--2---2--5--|
A|-0----------2--0---3--5--|
E|-0----------0---------3--|

Intro:
Up and down stroke the E natural chord about 8 times, and countinously under the song.

Piano part:
e|------------------|
B|------------2-2-2-|
G|-1---1------2-2-2-|
D|---------2--2-2-2-|
A|---2---2----0-0-0-|
E|------------------|
[ Tab from: http://www.guitartabs.cc/tabs/g/gorillaz/slow_country_crd.html ]
Progression 1:
E          A           A    E       C       A 
City lights, cool mid-lows, me and my soul, gives you a cry.

Pregression 2:
E                 A           E                A
I can't stand you lonelyness, can't stand your lonleyness...

Progression 3:
                     E            A
La la la la la la la la la la la, ba ba ba ba ba be.
E                                 C
La la la la la la la la la la la, la la la la la la la
E             Gm              E  C   E        A
La la, la la la, la la la la, whoh, oh oh ooo hoo.

================================================================================
Comments