Gorillaz - Re Hash Chords & Tabs

 

Re Hash Chords & Tabs

Gorillaz Chords & Tabs

Version: 1 Type: Tab 0 ratings
1 star 2 stars 3 stars 4 stars 5 stars
comments

Re Hash Tab

|---------------------------------------------
|---------------------------------------------
|---------------------------------------------
|---------------------------------------------  repeat 2x
|-----------9-9---7-7-7--7\--9-9--5-5-5--8-9-9
|-----------7-7---5-5-5--5\--7-7--7-7-7--6-7-7
[ Tab from: http://www.guitartabs.cc/tabs/g/gorillaz/re_hash_tab.html ]
|---------------------------------------------
|---------------------------------------------
|---------------------------------------------
|---------------------------------------------
|-----------9-9--12-12--14-14--9-9------------
|-----------7-7--10-10--12-12--7-7------------


I'm almost positive there is more, because the more listen more different it sounds, 
and I don't know what they are.

Like i said with my M1a1 ver2 it's crapy but it sounds good!
Comments