Gorillaz - Punk Chords & Tabs

 

Punk Chords & Tabs

Gorillaz Chords & Tabs

Version: 1 Type: Bass Tab 0 ratings
1 star 2 stars 3 stars 4 stars 5 stars
comments

Punk Bass Tab

Standard Tuning, 4 String Bass  

Gorillaz - Punk Bass Tabs 

(0:17) 
G:|--------------------|
D:|--------------------|
A:|7-7-7-7-5-5-5-7-----| Clap Clap Clap 
E:|--------------------|

(0:21) 
G:|--------------------|
D:|--------------------|
A:|7-7-7-7-5-5-5-3-----| Clap Clap Clap 
E:|--------------------| 

Repeat 4 times 

CHORUS - (0:42) 
G:|--------------------|
D:|--------------------|
A:|8-8-8-8-5-5-5-5-----| x4
E:|--------------------| 

(0:48) 
G:|--------------------|
D:|--------------------|
A:|7-7-7-7-5-5-5-8-----| 
E:|--------------------|
[ Tab from: http://www.guitartabs.cc/tabs/g/gorillaz/punk_btab.html ]
G:|--------------------|
D:|--------------------|
A:|7-7-7-7-5-5-5-3-----| 
E:|--------------------| 

(0:55) 
G:|--------------------|
D:|--------------------|
A:|7-7-7-7-5-5-5-7-----| Clap Clap Clap 
E:|--------------------|

G:|--------------------|
D:|--------------------|
A:|7-7-7-7-5-5-5-3-----| Clap Clap Clap 
E:|--------------------| 

REPEAT 4 times 

CHORUS (1:20) 

(1:26) 
G:|--------------------|
D:|--------------------|
A:|7-7-7-7-5-5-5-8-----| 
E:|--------------------|

G:|--------------------|
D:|--------------------|
A:|7-7-7-7-5-5-5-3-----| 
E:|--------------------| 


danieljamritsch@gmx.at
Comments