Gorillaz - Kids With Guns Chords & Tabs

 

Kids With Guns Chords & Tabs

Gorillaz Chords & Tabs

Version: 4 Type: Tab

Kids With Guns Tab

----------------------------------------------------------------------------
			     KIDS WITH GUNS - Gorillaz
----------------------------------------------------------------------------
Tabbed by: Tyler Kendig

I'm 14 and this is my first tab. This my favorite song on the album.

Tuning: Eadgbe (standard)


Gtr.1  playing bass part
e|----------------------|
B|----------------------|
G|----------------------|     x7
D|----------------------|
A|----------7-7-5-5-----|
E|-7-7-5-5--------------|

0:32
e|--------------------------------------------------------------------------|
B|--------------------------------------------------------------------------|
G|--------------------------------------------------------------------------|
D|--------------------------------------------------------------------------|
A|---------------------7-7------7-7-7-6-5-4-3-2-1-0-------------------------|
E|-7-7-7--7-7-7---5-5------5-5----------------------------------------------|

 

Gtr.2
0:41  ,  2:02
e|------------------------------------------|-------------------------------|
B|------------------------------------------|-------------------------------|
G|-7-7--0--8-8--0--9-9-9--7-5-7-7-----------|-------------------------------|
D|-9-9--0--7-7--0--9-9-9--7-7-7-7---- x 3---|---9--9--9-----9--9--9---------|
A|-9-9--0--7-7--0--7-7-7--5-5-5-5-----------|---9--9--9-----9--9--9---------|
E|-7-7--0--5-5--0---------------------------|---7--7--7-----7--7--7---------|
[ Tab from: http://www.guitartabs.cc/tabs/g/gorillaz/kids_with_guns_tab_ver_4.html ]
Piano part for guitar

1:03
e|-----------------------------|
B|-----------------------------|
G|-7------6------4-----7-------|
D|--9-9----7-7----6-6---9-9----|  x 4
A|---9------7------7-----9-----|
E|-----------------------------|


Actually, 2 guitars are playing this next part.

2:02   ,   2:58
e|--------------------------16-16-16-16--14-14-14-1-------------------------|
B|-12-12-12-12-12-12...-----------------------------------------------------|
G|--------------------------------------------------------------------------|
D|--------------------------------------------------------------------------|
A|--------------------------------------------------------------------------|
E|--------------------------------------------------------------------------|

Gtr.3?
e|--------------------------------------------------------------------------|
B|-12-12-12-12-12-12-12-12-12-12-12-12-12-12-12-12-12-12-12-12-12-112...----|
G|--------------------------------------------------------------------------|
D|--------------------------------------------------------------------------|
A|--------------------------------------------------------------------------|
E|--------------------------------------------------------------------------|


Gtr. 3?
2:58
e|------------------------------------|
B|------------------------------------|
G|------------------------------------|
D|-9-9-9-9-9-9-9-9-9-9-9-9-9-9-11-----|  heavy distortion
A|------------------------------------|
E|------------------------------------|