Gorillaz - Kids With Guns Chords & Tabs

 

Kids With Guns Chords & Tabs

Gorillaz Chords & Tabs

Version: 2 Type: Tab 0 ratings
1 star 2 stars 3 stars 4 stars 5 stars
comments

Kids With Guns Tab

This is the right way to play the song
[ Tab from: http://www.guitartabs.cc/tabs/g/gorillaz/kids_with_guns_tab_ver_2.html ]
Gorillaz- Kids With Guns
  Verse                      Pre-Chrous  
|---------------|   |--------------------------------------|
|---------------|   |--------------------------------------|
|---------------|   |--------------------------------------|
|---------------|x7 |--------------------------------------|
|---------66--44|   |--------------55----55-5-4-3-2-1-0----|
|--66--44-------|   |--555-555--44----44---------------4-3-|
Chorus                     
|----------------------|   |-----------|
|----0-----0---0-------|   |-----------|
|----0-----0-9-0-7-777-|   |-----------|
|-99-0-77--0-9-0-7-777-|x3 |-999--999--|
|-99-0-77--0-7-0-5-555-|   |-999--999--|
|-77---55--------------|   |-777--777--|13 18 17

 
(Verse)
Pre-Chorus not played at end of second verse

During Outro after the second chorus,the folloing is played in the background
(Listen Carfully To Hear the Guitar)

|------|     |---------------| |---------|            
|--13--|x56  |---17-x3-16-x5-| |--13-----|x10
|------|     |---------------| |---------|
|------|     |---------------| |---------|
|------|     |---------------| |---------|
|------|     |---------------| |---------|

THis sounds Alot Like the song,this is my first tab so plz rate me
The Song is as good as the album
Comments