Gorillaz - Kids With Guns Chords & Tabs

 

Kids With Guns Chords & Tabs

Gorillaz Chords & Tabs

Version: 2 Type: Bass Tab 0 ratings
1 star 2 stars 3 stars 4 stars 5 stars
comments

Kids With Guns Bass Tab

Gorrilaz

Kids with Guns

By:Gorrilaz

Intro/Verse
G|-------------------|
D|-------------------|
A|---------5-5-3-3---|
E|-5-5-3-3-----------|
[ Tab from: http://www.guitartabs.cc/tabs/g/gorillaz/kids_with_guns_btab_ver_2.html ]
Chorus~The chorus repeats 3x, but only play it once~
G|------------------------------------|
D|------------77----77----------------|
A|------------------------------------|
E|-555-555-55----55---7-6-5-4-3-2-1-0-|

Out Verse~5x Think~
G|-----4---------|
D|-------4-2-----|
A|-2-4-------2-4-|
E|---------------|

Well thats it. version 1 is messed up

Cya.
Comments