Gorillaz - Kids With Guns Chords & Tabs

 

Kids With Guns Chords & Tabs

Gorillaz Chords & Tabs

Version: 1 Type: Bass Tab 0 ratings
1 star 2 stars 3 stars 4 stars 5 stars
comments

Kids With Guns Bass Tab

Kids With Guns

Artist: Gorillaz
Album: Demon days

tabbed by chhang7 (chhang7@hotmail.com)

great album, But it does remind me of Queens of the Stone Age for some strange reason.
Anyway it's a great song

Intro/Verse
 
G|-------------------------|  
D|-------------------------|  
A|----------7-7-5-5--------|  
E|-7-7--5-5----------------|  
[ Tab from: http://www.guitartabs.cc/tabs/g/gorillaz/kids_with_guns_btab.html ]
End Verse Bit
 
G|------------------------------------------------|  
D|-------------------9-9-----9-9------------------|  
A|------------------------------------------------|  
E|-7-7-7--7-7-7--7-7-----7-7-----7-6-5-4-3-2-1-0--|  


End bit

 
G|-----4--------------------|  
D|-------4-2----------------|  
A|-2-4-------4-2--4-2-------|  
E|--------------------------|
Comments