Gorillaz - Highway Under Construction Chords & Tabs

 

Highway Under Construction Chords & Tabs

Gorillaz Chords & Tabs

Version: 2 Type: Bass Tab

Highway Under Construction Bass Tab

I've not really added much structure to this, because there isn't really any
- just follow it through (:
Cheers, G.K

intro
G|---------|
D|-------2-|
A|-----3---| x4
E|-3-0-----|

verse
G|-------------------------------------|
D|-------2-----------------------2-----|
A|-----3---3-5-------3-2-5-----3-----5-|
E|-3-0---------5-0-5-------5-3---------|

G|-------------------------------------|
D|-------2-----------------------2-----|
A|-----3---3-5-------3-2-5-----3---3-5-| x2
E|-3-0---------5-0-5-------5-3---------|
[ Tab from: http://www.guitartabs.cc/tabs/g/gorillaz/highway_under_construction_btab_ver_2.html ]
G|-----------------------------------|
D|-------2---2---2-------2-------2---|
A|-----3---3---3-------3-------3--53-|
E|-3-0-------------3-0-----3-0-------|

G|-------------------------------------|
D|-------2-----------------------2-----|
A|-----3---3-5-------3-2-5-----3---3-5-|
E|-3-0---------5-0-5-------5-3---------|

G|---------------------------------------|
D|-------2-----------------------2---2---|
A|-----3---3-5-------3-2-5-----3---3--53-|
E|-3-0---------5-0-5-------5-3-----------|


G|--------------------------------------|
D|-------2-----------------------2------|
A|-----3---3-5-------3-2-5-----3---3-5--| x3
E|-3-0---------5-0-5-------5-3----------|

outro
G|-------------------|
D|-------2---------2-|
A|-----3--53-----3---| x6 fades out...
E|-3-0-------3-0-----|