Gorillaz - Five Four Chords & Tabs

 

Five Four Chords & Tabs

Gorillaz Chords & Tabs

Version: 1 Type: Tab 0 ratings
1 star 2 stars 3 stars 4 stars 5 stars
comments

Five Four Tab

   
#----------------------------------PLEASE NOTE---------------------------------#
#This file is the author's own work and represents their interpretation of the #
#song. You may only use this file for private study, scholarship, or research. #
#------------------------------------------------------------------------------##

Title: 		5/4 Five Four Five Forths WHATEVER THE HELL IT IS!
Band: 		Gorillaz
Album:		Gorillaz
Transcribed By:	Andrew C. (steak4chicken)
My Email:	Squall72788@Hotmail.com

The Gorillaz are a great band but I'm sure you already know that. This song is one of the few 
Gorillaz songs that people ALMOST got right but not quite. Here it is...I was just listening
to it a few minutes ago when I figured it out:

The main chords are: C, F, C Eb
You can play them any way you want. There are at least 3 or 4 ways but I think it sounds
best like this: (I won't show full barre because it just doesn't sound right.)
[ Tab from: http://www.guitartabs.cc/tabs/g/gorillaz/five_four_tab.html ]
E|-----------------------------------------------------------
B|-----------------------------------------------------------
G|------------10---10---10-----------------------------------
D|--10---10---10---10---10---10--10---13---13---13-----------
A|--10---10---8----8----8----10--10---13---13---13-----------
E|--8----8-------------------8---8----11---11---11-----------

The parts where it goes "She turned my dad on..." and the weird breakdown part is only a G
played however many times. 

E|-----------------------------------------------------------
B|-----------------------------------------------------------
G|-----------------------------------------------------------
D|---5--------------------------------------------------------
A|---5--------------------------------------------------------
E|---3--------------------------------------------------------


Pretty simple, eh?

Hasta luego,
Andrew

"The closest thing Puggy could get to Mexican food is Fritos."
Comments