Gorillaz - Fire Coming Out Of The Monkeys Head Chords & Tabs

 

Fire Coming Out Of The Monkeys Head Chords & Tabs

Gorillaz Chords & Tabs

Version: 2 Type: Bass Tab 0 ratings
1 star 2 stars 3 stars 4 stars 5 stars
comments

Fire Coming Out Of The Monkeys Head Bass Tab

Gorillaz - Fire Coming Out Of The Monkey's Head
Album - Demon Days
Tabbed By Elias Allanby (lpaustralia@hotmail.com or blinkme_elias2002@yahoo.com.au


MAIN RIFF
G|-----------------------------|
D|-----------------------------|
A|-----------------------------|
E|-5~-3~-5~--------------------|

Riff 2 (Then One Day Strange Folk...)
G|-----------------------------|
D|-----------------------------|
A|-----------------------------|
E|-5~-3~-1~-0~-0~-1~-3~-5~-----|

During The Part 2-D Sings (Softly) 
G|-----------------------------|
D|-----------------------------|
A|-----------------------------|
E|-5~-3~-5~--------------------|
[ Tab from: http://www.guitartabs.cc/tabs/g/gorillaz/fire_coming_out_of_the_monkeys_head_btab_ver_2.html ]
MAIN RIFF (In Time Strange Folk Found Their Way..)
G|-----------------------------|
D|-----------------------------|
A|-----------------------------|
E|-5~-3~-5~--------------------|

Riff 2  (They Covered the Jewls In This Cave...)
G|-----------------------------|
D|-----------------------------|
A|-----------------------------|
E|-5~-3~-1~-0~-0~-1~-3~-5~-----| X2


MAIN RIFF  (Digging Away At Their Soles..)
G|-----------------------------|
D|-----------------------------|
A|-----------------------------|
E|-5~-3~-5~--------------------|

The End Part Where 2-D Sings Again You Can Hear an A note twice...
G|-----------------------------|
D|-----------------------------|
A|-----------------------------|
E|-5~--------------5~----------|

www.freewebs.com/thenumlocks
Comments