Gorillaz - Fire Coming Out Of The Monkeys Head Chords & Tabs

 

Fire Coming Out Of The Monkeys Head Chords & Tabs

Gorillaz Chords & Tabs

Version: 1 Type: Bass Tab

Fire Coming Out Of The Monkeys Head Bass Tab

This is one of the best songs i've heard. The bass just speaks to me.
Dennis Hopper is the one reading it.

-----------------------------------|
-----------------------------------|
----6/7--6/7--6/7--6/7-------------|
-----------------------------------| x6

------------------------------------|
--7--2-3-2-3-2-7-7-3-2-10-5-3-3-2-2-|
------------------------------------|
------------------------------------|

Chorus
No bass, just guitar
[ Tab from: http://www.guitartabs.cc/tabs/g/gorillaz/fire_coming_out_of_the_monkeys_head_btab.html ]
-----------------------------------|
-----------------------------------|
----6/7--6/7--6/7--6/7-------------|
-----------------------------------| x6

------------------------------------|
--7--2-3-2-3-2-7-7-3-2-10-5-3-3-2-2-|
------------------------------------|
------------------------------------|

-----------------------------------|
-----------------------------------|
----6/7--6/7--6/7--6/7-------------|
-----------------------------------| x6

No Bass