Gorillaz - Feel Good Inc Chords & Tabs

 

Feel Good Inc Chords & Tabs

Gorillaz Chords & Tabs

Version: 8 Type: Tab

Feel Good Inc Tab

   
-------------------------------------------------------------------------------
			     Feel Good Inc - Gorillaz
-------------------------------------------------------------------------------
Tabbed by: metalmulishatro
Email:

Tuning: standard (eadgbe)

intro/main riff: (can be done on electric guitar or bass guitar, but is done on bass in
this song)
e|-------------------------------------------------|
B|-------------------------------------------------|
G|-------------------------------------------------|listen to song to
D|-------------------------------------------------|see number of times
A|------------4--3------1--1--4--3-----------------|to play.
E|0--0--3--4------------------------4--1-----------|
[ Tab from: http://www.guitartabs.cc/tabs/g/gorillaz/feel_good_inc_tab_ver_8.html ]
verse: (guitar cant be heard very clearly through verse but this is what is played)
e|-----------------9-9-7-15/14--3/6-----------------------------------------|
B|--7h9--7h9--7h9-----------------------------------------------------------|
G|--------------------------------------------------------------------------|
D|--------------------------------------------------------------------------|
A|--------------------------------------------------------------------------|
E|--------------------------------------------------------------------------|

chorus:
e|---------------------------------------------------------------------------|
B|---------------------------------------------------------------------------|
G|---------------------------------------------------------------------------|
D|-11-13-13-13-13--13--11--11-11---11-9-9-9-9-9--11---11-11-11---11--13--13--|
A|-9--11-11-11-11--11--9-9-9-------9--7-7-7-7-7---9-9-9--9--9--11--11--11----|
E|---------------------------------------------------------------------------|

bridge to verse:
e|--------------------------------------------------------------------------|
B|--------------------------------------------------------------------------|
G|--------------------------------------------------------------------------|
D|-11-13-13-13-13-13-13-13-13-13--------------------------------------------|
A|-9--11-11-11-11-11-11-11-11-11--------------------------------------------|
E|--------------------------------------------------------------------------|

key:

/  slide up
h  hammer-on

well thats the tab it is pretty much al right so have fun with it!!