Gorillaz - Feel Good Inc Chords & Tabs

 

Feel Good Inc Chords & Tabs

Gorillaz Chords & Tabs

Version: 7 Type: Bass Tab 0 ratings
1 star 2 stars 3 stars 4 stars 5 stars
comments

Feel Good Inc Bass Tab

Good Feel Inc.
Gorillaz
-By Joe

The rest of the tabs didn't really sound correct to me...

I dont know how accurate this is... I think this should be correct


Intro
g-----------------------------|
d----------9-8~-6~-6-9-8------|
a-6~-6-8-9--------------9--6~-|
e-----------------------------|x1

g----------------------------6/8-|
d----------9-8~-6~-6-9-8---------|
a-6~-6-8-9--------------9--6~----|
e--------------------------------|x1

g-----------------------------|
d----------9-8~-6~-6-9-8------|
a-6~-6-8-9--------------9--6~-|
e-----------------------------|x1

Verse 1
g----------------------------6/8-|
d----------9-8~-6~-6-9-8---------|
a-6~-6-8-9--------------9--6~----|
e--------------------------------|x4

g-6/8-6--------------|
d-------8-6----------|
a-----------9-6~-6-6-|
e--------------------|

Chorus
This part is played extreemly lightly in the background...
I'm not really sure if this is guitar or bass...either way it sounds fine.

g---------------6-6----6-6--6-----------------------------|
d-----------------------------6-6----6-6--6-8-8----8-8--8-|
a-6-6----6-6--6-------------------------------------------|
e---------------------------------------------------------|x1
[ Tab from: http://www.guitartabs.cc/tabs/g/gorillaz/feel_good_inc_btab_ver_7.html ]
g---------------6-6----6-6--6---------------6-6----6-6----|
d-----------------------------6-6----6-6--6---------------|
a-6-6----6-6--6-------------------------------------------|
e---------------------------------------------------------|
^^^^^^^
continued...
g-6-6-6----6-6-6-6-6----6-6-|
d---------------------------|
a---------------------------|
e---------------------------|

Verse 2

g-----------------------------|
d----------9-8~-6~-6-9-8------|
a-6~-6-8-9--------------9--6~-|
e-----------------------------|

g----------------------------6/8-|
d----------9-8~-6~-6-9-8---------|
a-6~-6-8-9--------------9--6~----|
e--------------------------------|x4

Chorus
g---------------6-6----6-6--6-----------------------------|
d-----------------------------6-6----6-6--6-8-8----8-8--8-|
a-6-6----6-6--6-------------------------------------------|
e---------------------------------------------------------|x1

g---------------6-6----6-6--6---------------6-6----6-6----|
d-----------------------------6-6----6-6--6---------------|
a-6-6----6-6--6-------------------------------------------|
e---------------------------------------------------------|
^^^^^^^
continued...
g-6-6-6----6-6-6-6-6----6-6-|
d---------------------------|
a---------------------------|
e---------------------------|

Outro
g-----------------------------|
d----------9-8~-6~-6-9-8------|
a-6~-6-8-9--------------9--6~-|
e-----------------------------|

g----------------------------6/8-|
d----------9-8~-6~-6-9-8---------|
a-6~-6-8-9--------------9--6~----|
e--------------------------------|x4

To contact me on AIM IM me at awful wrawker 41

Thanks
Comments