Gorillaz - Dare Chords & Tabs

 

Dare Chords & Tabs

Gorillaz Chords & Tabs

Version: 1 Type: Tab

Dare Tab

-------------------------------------------------------------------------------
			     Dare - Gorillaz
-------------------------------------------------------------------------------
Tabbed by: Ace496970
Email: Ace496970@yahoo.com

Tuning:standard


So after getting this song stuck in your head, you pretty much figure out the
synthesized riff. I tabbed the synth. part, and it sounds pretty cool on the
guitar. Play the first riff, then second, and back to the first with a couple
more 10's at the end. I'm sure you smart guys can figure out the timing, so I
didn't bother. Please RATE this, and check out my feel good inc tab too. (it's
the top rated bass).
[ Tab from: http://www.guitartabs.cc/tabs/g/gorillaz/dare_tab.html ]
e|---13----12-----10------10-------------------------------------------------|
B|11----10----8--------8-----------------------------------------------------|
G|---------------------------------------------------------------------------|
D|---------------------------------------------------------------------------|
A|---------------------------------------------------------------------------|
E|---------------------------------------------------------------------------|

................................(right hear it gets progressively softer)

e|---13----12---10-----10--------8-----6-----5-------5-----------------------|
B|11----10----8-----8---------6-----4-----3-------3--------------------------|
G|---------------------------------------------------------------------------|
D|---------------------------------------------------------------------------|
A|---------------------------------------------------------------------------|
E|---------------------------------------------------------------------------|