Gorillaz - Clint Eastwood Chords & Tabs

 

Clint Eastwood Chords & Tabs

Gorillaz Chords & Tabs

Version: 2 Type: Bass Tab 0 ratings
1 star 2 stars 3 stars 4 stars 5 stars
comments

Clint Eastwood Bass Tab

normal tuning


Part 1 played 3x
---------------
--1-1---1------
------1--------
0--------------

then
[ Tab from: http://www.guitartabs.cc/tabs/g/gorillaz/clint_eastwood_btab_ver_2.html ]
---------------
--1-1----------
------2-1-0----
0-----------3--


repeat this through song, expect for a few execptions,
Comments