Gorillaz - All Alone Solo Chords & Tabs

 

Gorillaz Chords & Tabs

Version: 1 Type: Tab 0 ratings
1 star 2 stars 3 stars 4 stars 5 stars
comments

All Alone Solo Tab

   
-------------------------------------------------------------------------------
			     ALL ALONE - Gorillaz
-------------------------------------------------------------------------------
Tabbed by: Dylan Kappler
Email: empirebillboard@gmail.com

Tuning: EADGBe

The whole song leading up to the acoustic chorus is just the repetition of Amin 
(using B as transition note) to G (using D as transition note)

Then this is played when the female vocal comes in.

e|---------------------------------------------------------------------------|
B|---3-----3----3-----3-----3-----3-----3-----3-----5-----5------5-----5-----|
G|------4----------4-----------4-----------4-----------5------------5--------|
D|---------------------------------------------------------------------------|
A|-2---------2-----------2-----------2-----------3------------3--------------|
E|---------------------------------------------------------------------------|

e|---------------------------------------------------------------------------|
B|-----5-----5------5-----5-----3-----3-----3-----3-----3-----3-----3-----3--|
G|--------5------------5-----------4-----------4-----------4-----------4-----|
D|---------------------------------------------------------------------------|
A|--3------------3-----------2-----------2-----------2-----------2-----------|
E|---------------------------------------------------------------------------|

e|---------------------------------------------------------------------------|
B|-----5-----5-----5-----5-----5-----5-----5-----5-----3-----3-----3-----3---|
G|--------5-----------5-----------5-----------5-----------4-----------4------|
D|---------------------------------------------------------------------------|
A|--3-----------3-----------3-----------3-----------2-----------2------------|
E|---------------------------------------------------------------------------|
[ Tab from: http://www.guitartabs.cc/tabs/g/gorillaz/all_alone_solo_tab.html ]
e|---------------------------------------------------------------------------|
B|-----3-----3-----3-----3-----5-----5-----5-----5-----5-----5-----5-----5---|
G|--------4-----------4-----------5-----------5-----------5-----------5------|
D|---------------------------------------------------------------------------|
A|--2-----------2-----------3-----------3-----------3-----------3------------|
E|---------------------------------------------------------------------------|

e|---------------------------------------------------------------------------|
B|----7-----7-----7-----7-----7-----7-----7-----7------8-----8-----8-----8---|
G|-------7-----------7-----------7-----------7------------9-----------9------|
D|---------------------------------------------------------------------------|
A|-5-----------5-----------5-----------5------------7-----------7------------|
E|---------------------------------------------------------------------------|

e|---------------------------------------------------------------------------|
B|---------------------------------------------------------------------------|
G|-----6-----6-----6-----6------5-----5-----5-----5-----5-----5-----5-----5--|
D|--------7-----------7------------7-----------7-----------7-----------7-----|
A|---------------------------------------------------------------------------|
E|--5-----------5------------5-----------5-----------5-----------5-----------|

e|---------------------------------------------------------------------------|
B|-----7-----7-----7-----7-----7-----7-----7-----7---------------------------|
G|--------7-----------7-----------7-----------5------------------------------|
D|---------------------------------------------------------------------------|
A|--5-----------5-----------5-----------5------------------------------------|
E|---------------------------------------------------------------------------|



| /  slide up
| \  slide down
| h  hammer-on
| p  pull-off
| ~  vibrato
| +  harmonic
| x  Mute note
===============================================================================
Comments