Gorillaz - 5 4 Chords & Tabs

 

Gorillaz Chords & Tabs

Version: 2 Type: Tab 0 ratings
1 star 2 stars 3 stars 4 stars 5 stars
comments

5 4 Tab

XxXxXxXxXxXxXxXxXxXxXxXxXxXxXxXxXxXxXxXxXxXxXxXxXxX
x                                                 x
X           5/4 (Five Four) - GoRiLLaz            X
x                                                 x
XxXxXxXxXxXxXxXxXxXxXxXxXxXxXxXxXxXxXxXxXxXxXxXxXxX

Tabbed By: Tr[a]sH

Tuning = Standard

X = Muted Note
/ = Slide Up
\ = Slide Down
> = Let Ring

# This is my first tab, everyone elses sucked... #
# so i guess mine will to... but i dont think    #
# its bad seeing how i teach myself how to play  #
# There could be bits missing or notes wrong but #
# this is more or less how its played.           #


VERSE 1:

Guitar One:

e|----------------------------------------|
B|----------------------------------------|
G|----------------------------------------| x15
D|-5-5/10-10-10-5-5/8-8-8\----------------|
A|-3-3/8--8--8--3-3/6-6-6\----------------|
E|-X-X-X--X--X--X-X-X-X-X-----------------|


Guitar Two: (Comes in after guitar one plays
             the riff twice)

I'm not sure about this one either they play
this or the same as guitar one, i just thought
it sounded kool
e|----------------------------------------|
B|----------------------------------------|
G|----------------------------------------| x13
D|-X-X-X--X--X--X-X-X-X-X-----------------|
A|-5-5/10-10-10-5-5/8-8-8-----------------|
E|-3-3/8--8--8--3-3/6-6-6-----------------|



CHORUS 1:

Guitar One:

e|----------------------------------------|
B|----------------------------------------|
G|----------------------------------------| x2
D|-5-5-5-5-5-5-5-5-5-5-5-5----------------|
A|-3-3-3-3-3-3-3-3-3-3-3-3----------------|
E|----------------------------------------|


Guitar Two:

Again, not sure bout this

e|----------------------------------------|
B|----------------------------------------|
G|----------------------------------------|
D|----------------------------------------|
A|-5>------5>------5>--5>--5>--5>---------|
E|-3>------3>------3>--3>--3>--3>---------|

(Continue)
e|----------------------------------------|
B|----------------------------------------|
G|----------------------------------------|
D|----------------------------------------|
A|-5-5-5-5-5-5-5-5-5-5-5-5-5-5-5-5--------|
E|-3-3-3-3-3-3-3-3-3-3-3-3-3-3-3-3--------|



PRE-BRIDGE:

Guitar One:

e|----------------------------------------|
B|----------------------------------------|
G|----------------------------------------| x3
D|-5-5/10-10-10-5-5/8-8-8-----------------|
A|-3-3/8--8--8--3-3/6-6-6-----------------|
E|-X-X-X--X--X--X-X-X-X-X-----------------|

Guitar Two:
[ Tab from: http://www.guitartabs.cc/tabs/g/gorillaz/5_4_tab_ver_2.html ]
Not Sure
e|----------------------------------------|
B|----------------------------------------|
G|----------------------------------------| x3
D|-X-X-X--X--X--X-X-X-X-X-----------------|
A|-5-5/10-10-10-5-5/8-8-8-----------------|
E|-3-3/8--8--8--3-3/6-6-6-----------------|

Synthesizer aranged for guitar:

e|----------------------------------------|
B|----------------------------------------|
G|-4/5-5/10-10-10--4/5-5/8-8-8------------| x3
D|----------------------------------------|
A|----------------------------------------|
E|----------------------------------------|


BRIDGE:

Synthesizer aranged for guitar:

e|----------------------------------------|
B|-------------------------9-9-9----------|
G|-4/5-5/10-10-10--5/10-10----------------|
D|----------------------------------------|
A|----------------------------------------|
E|----------------------------------------|



VERSE 2:

Guitar One:

e|----------------------------------------|
B|----------------------------------------|
G|----------------------------------------| x12
D|-5-5/10-10-10-5-5/8-8-8-----------------|
A|-3-3/8--8--8--3-3/6-6-6-----------------|
E|-X-X-X--X--X--X-X-X-X-X-----------------|

Guitar Two:

e|----------------------------------------|
B|----------------------------------------|
G|----------------------------------------| x12
D|-X-X-X--X--X--X-X-X-X-X-----------------|
A|-5-5/10-10-10-5-5/8-8-8-----------------|
E|-3-3/8--8--8--3-3/6-6-6-----------------|

Synthesizer aranged for guitar:

e|----------------------------------------|
B|----------------------------------------|
G|-4/5-5/10-10-10--4/5-5/8-8-8------------| x12
D|----------------------------------------|
A|----------------------------------------|
E|----------------------------------------|



OUTRO:

Guitar One:

e|----------------------------------------|
B|----------------------------------------|
G|----------------------------------------|
D|-5>------5>------5>--5>--5>--5>---------|
A|-3>------3>------3>--3>--3>--3>---------|
E|----------------------------------------|

(Continue)
e|----------------------------------------|
B|----------------------------------------|
G|----------------------------------------|
D|-5-5-5-5-5-5-5-5-5-5-5-5-5-5-5-5--------|
A|-3-3-3-3-3-3-3-3-3-3-3-3-3-3-3-3--------|
E|----------------------------------------|


Guitar Two:

e|----------------------------------------|
B|----------------------------------------|
G|----------------------------------------|
D|----------------------------------------|
A|-5>------5>------5>--5>--5>--5>---------|
E|-3>------3>------3>--3>--3>--3>---------|

(Continue)
e|----------------------------------------|
B|----------------------------------------|
G|----------------------------------------|
D|----------------------------------------|
A|-5-5-5-5-5-5-5-5-5-5-5-5-5-5-5-5--------|
E|-3-3-3-3-3-3-3-3-3-3-3-3-3-3-3-3--------|


ORDER:

verse 1
chorus 1
pre-bridge
bridge
verse 2
chorus 1
outro
Comments