Gorillaz - 12d3 Chords & Tabs

 

Gorillaz Chords & Tabs

Version: 3 Type: Tab 1 rating
1 star 2 stars 3 stars 4 stars 5 stars
comments

12d3 Tab

   
Tabbed by OhYouTeeOfIt



E |------0------------------------|
B |------x------------------------|
G |--7-7-9------------------------|
D |--7-7-9------------------------|
A |--5-5-7-5--7--5--8--5----------|
E |-------------------------------|
     D D E
It pretty simple. If you play it with the song the rhythm plays this through the whole song. 






Not sure about the piano
[ Tab from: http://www.guitartabs.cc/tabs/g/gorillaz/12d3_tab_ver_3.html ]
but there's another part where a second guitar does somethin like this

E |-------------------------------||-----5-7-----------------------|
B |-----5-7-----------------------||-------------------------------|
G |-------------------------------||-------------------------------| 
D |-------------------------------||-------------------------------|
A |-------------------------------||-------------------------------|
E |-------------------------------||-------------------------------|


Comments