Gorilla Biscuits - Start Today Chords & Tabs

 

Start Today Chords & Tabs

Gorilla Biscuits Chords & Tabs

Version: 1 Type: Tab 0 ratings
1 star 2 stars 3 stars 4 stars 5 stars
comments

Start Today Tab

---------------I------------------------------------------------|
---------------I------------------------------------------------|
--6--6--6--6---I-----------------------6--6--6---6--6--6--------|
--6--6--6--6---I---4--4--4---7--7--7---6--6--6---6--6--6--------|
--4--4--4--4---I---4--4--4---7--7--7---4--4--4---4--4--4--------|
---------------I---2--2--2---5--5--5----------------------------|

-----------------------------------------------------------------|
-----------------------------------------------------------------|
--4--6--4----------------------4--6--4--------------4--4--4--4---|
--4--6--4--6--6--6---7--7--7---4--6--4--7--7--7--7--4--4--4--4---|
--2--4--2--6--6--6---7--7--7---2--4--2--7--7--7--7--2--2--2--2---|
-----------4--4--4---5--5--5------------5--5--5--5---------------|
[ Tab from: http://www.guitartabs.cc/tabs/g/gorilla_biscuits/start_today_tab.html ]
-----------------------------------------------------------------|
-----------------------------------------------------------------|
-----------------------------------------------------------------|
--4--4--4--4---7--7--7--7---2--2---2--2---2--2-------------------|
--4--4--4--4---7--7--7--7---2--2---2--2---2--2-------------------|
--2--2--2--2---5--5--5--5---0--0---0--0---0--0-------------------|
  ~~~~~~~~~~   ~~~~~~~~~~   ~~~~   ~~~~   ~~~~
      PM           PM        PM     PM     PM


Lyrics:

Yesterday you were on my back just to
get my time. I guess it's not as precious
as it seems. Because I found the time for
hanging out and talking on the phone. What
should I expect, now that my time is free
and you nowhere to be found.

Next time I'll try, for the first time in my
life. It won't pass me by. Procrastinate it
can wait, I put it off.
Let's start today

My room's a mess and I can't get
dressed. I gotta be out by eight o'clock.
Deep inside I know the answer. Well
there's no time like present and I'd
like to hang out but who doesn't. I've
made enough mistakes for this lifetime.
Now I'm here to make amends.

Next time I'll try, for the first time in my
life. It won't pass me by. Procrastinate it
can wait, I put it off.
Let's start today
Comments