Gorilla Biscuits - New Direction Chords & Tabs

 

New Direction Chords & Tabs

Gorilla Biscuits Chords & Tabs

Version: 2 Type: Bass Tab 0 ratings
1 star 2 stars 3 stars 4 stars 5 stars
comments

New Direction Bass Tab

   
-----------------------------------------------------------------------------
               NEW DIRECTION - Gorilla Biscuits
-----------------------------------------------------------------------------

By: Carlos Pino

intro:
G|-----------------------------------------------------------
D|------------------------------------------------------------
A|------------------------------------------------------------
E|-2-2-2-2-2-2-2-2-2-2-2-2-2-2-2-2-2-2-2-2-2

verse:   
(what do you mean it's time, etc...)
G|--------------------------------------------------------------|
D|-------------------------------------------------------------|
A|-------------------------------------------------------------|
E|--2-22220-00002-22220-0000--------|------------|

G|-------------------------------------------------------------|
D|-------------------------------------------------------------|
A|-------------------------------------------------------------|
E|-2-22220-00002-22220-0000----------------------|
[ Tab from: http://www.guitartabs.cc/tabs/g/gorilla_biscuits/new_direction_btab_ver_2.html ]
G|-------------------------------------------------------------|
D|-------------------------------------------------------------|
A|-------------------------------------------------------------|
E|-2-22220-00002-22220-0000--------|-------------|


G|---------------------------------------------------------------
D|---------------------------------------------------------------
A|---------------------------------------------------------------------------
E|-2-22220-00002-22220-0000--------|---------------------------|  

chorus:
  (now we're so ashamed, etc...)
G|---------------------------------------------------------------------------------------------
D|---------------------------------------------------------------------------------------------
A|-4-4-4-4-4-4-4-4----------7-7-7-7-|-4-4-4-4-4-4-4-4-2-2-2-2-0---0--5-4|
E|-----------------------5-5-5-5----------|-------------------------------------------------

G|------------------------------------------------------------------------|
D|-----------------------------------------------------------------------
A|-4-4-4-4-4-4-4-4-------------7-7-7-7-|-4-4-4-4-4-4-4-4-|
E|-----------------------5-5-5-5-------------|-----------------------|

G|-------------------------------------------------------
D|-------------------------------------------------------
A|-222-222-222-222-000-000---5-5---5-5---
E|-------------------------------------------------------
repeat verse and chorus sections.

Comments