Gorilla Biscuits - High Hopes Chords & Tabs

 

High Hopes Chords & Tabs

Gorilla Biscuits Chords & Tabs

Version: 1 Type: Bass Tab 0 ratings
1 star 2 stars 3 stars 4 stars 5 stars
comments

High Hopes Bass Tab

   
ARTIST: GORILLA BISCUITS 
SONG: HIGH HOPES 
ALBUM: S/T 
TAB BY: JARED 
(THEMEFROMAJACKYL@YAHOO.COM) 
INTRO 
 a 
G--------------|-------------|-------------|---------------| play 
D--------------|-------------|-------------|---------------| first 
A-2-2--2-2-2-2-|-2-2-2-2-2-2-|5-5-5-5--5-5-|-4--4-4--4-0-3-| 4bars 
E--------------|-------------|-------------|---------------|  4X 
 b 
G----------4-------|----------4-------|--------------|---------------| 
D-------------4----|-------------4----|--------------|---------------| 
A-2--2-2-2-------2-|-2--2-2-2-------2-|-5-5-5-5--5-5-|-4--4-4--4-0-3-| 
E------------------|------------------|--------------|---------------| 
 c 
G----------4-------|--------------|--------------|---------------| 
D-------------4----|--------------|--------------|---------------| 
A-2--2-2-2-------2-|-2-2--2-2-2-2-|-5-5-5-5--5-5-|-4--4-4--4-0-3-| 
E------------------|--------------|--------------|---------------| 
 intro a one more time then 
G------------4----|--------------|--------------|---------------| 
D---------4-----4-|--------------|--------------|---------------| 
A-2-2-2-2---------|-2-2--2-2-2-2-|-5-5-5-5--5-5-|-4--4-4--4-0-3-| 
E-----------------|--------------|--------------|---------------| 
[ Tab from: http://www.guitartabs.cc/tabs/g/gorilla_biscuits/high_hopes_btab.html ]
VERSE 
 a               b 
G-------------||---------|-----------|-------------|-------------| 
D-------------||---------|-----------|-------------|-------------| 
A-2-2-2--2-5--||---------|-6-6-7-7-7-|-2-2-2--2-5--|-2-2-2--2-5--| 
E-------------||-4-4-4-4-|-----------|-------------|-------------| 

CHORUS 
 a                           b                    c       d 
G-------------|-----------||---------4--4-2-----||------||--------| 
D-------------|-------2-2-||-----2^4--------4-2-||------||--------| 
A-------1-1-1-|-4-4-4-----||-2------------------||-2----||-2-2\14-| 
E-2-2-2-------|-----------||--------------------||------||--------| 
 First chorus: a,b,a,c      Second chorus: a,d,a,c 

BREAKDOWN 
  
G---------|--------|---------|------------|   play the breakdown 
D---------|--------|---------|------------| 5 times, the 6th time 
A-2-2-2-2-|-2-2-2-2|-5-5-5-5-|-4-4-4--0-3-|     play the fill 
E---------|--------|---------|------------| 
breakdown fill 
G---------|-----8-8-9-10-|---------|------------| 
D---------|-9-9----------|---------|------------|   end the song 
A---------|--------------|-5-5-5-5-|-4-4-4--0-3-|   on the verse 
E-7-7-7-7-|--------------|---------|------------|   then chorus 

XX1134XX 


Comments