Gorgoroth - Funeral Procession Chords & Tabs

 

Funeral Procession Chords & Tabs

Gorgoroth Chords & Tabs

Version: 2 Type: Tab 0 ratings
1 star 2 stars 3 stars 4 stars 5 stars
comments

Funeral Procession Tab

			 _____________________________________
			|Band       : GORGOROTH		      |
			|Album      : Under The Sign Of Hell  |
			|Song       : Funeral Procession      |
			|Year  	    : 1997		      |
			|Compositor : Infernus		      |
			|				      |
			|Tabbed by  : Gehasia	              |
			|_____________________________________|

-----------------------------------------------------------------------------------
If i have time, i'll add the second guitar...
 
As a lots of gorgoroth's songs, it's very hard to distinguish each note.
The guitar has a lot of distortion and the 

bass is melodic, so it's easy to confuse the bass and the two 
guitars (especially on the arpeggio). So i know that the riff-2(arpeggio)
may don't be that 'exactly', if you know the "real true" arpeggio please
tell it to me on my mail: 	

gehasia@hotmail.com

Use the same mail, for comments, other errors, or if you have the lyrics !!!

Enjoy !

Gehasia 21/03/2003
------------------------------------------------------------------------------------


Intro

e||------|
b||------|
g||---6--|
d||--7-7-|
a||------|
e||------|


Riff-1 (tremolo picking) x4

e||--------------------------------|
b||-------6--6----10-11-8--10-10---|
g||--7-3-7--7--6--7--7--7--7--6----|
d||--------7--7-7------------------|
a||--------------------------------|
e||--------------------------------|


Riff-2(arpeggio) x2  (alternate the two parts)
[ Tab from: http://www.guitartabs.cc/tabs/g/gorgoroth/funeral_procession_tab_ver_2.html ]
1st part
e||------------------------------------------6------6----|
b||-----6-----6-----6-----6-----6-----6-----6-6----6-6---|
g||----7-7---7-7---7-7---7-7---7-7---7-7---7---7--7---7--|
d||---7---7-7---7-7---7-7---7-7---7-7---7-8-----8--------|
a||--5-----5-----5-----5-----5-----5---------------------|
e||------------------------------------------------------|

2nd part
e||--------------------------------------------------5---|
b||----6-6---6-6---6-6---6-6----6-6----6-6----6-6---5-5--|
g||-----7-7---7-7---7-7---7-7--7-7-7--7-7-7--7-7-7-6---6-|
d||---7-----7-----7-----7----8------8------8------7------|
a||--5-----5-----5-----5---------------------------------|
e||------------------------------------------------------|



=> Then Riff-1 x4


Then transition

e||----|
b||----|
g||--7-|
d||--7-|
a||--5-|
e||----|


Riff-3 (tremolo picking)

1st part x2    (the second guitar play the three last notes)
e||---------------------|
b||---------------------|
g||--------------9-10-9-|
d||--8--7-5-2-3---------|
a||--10-8-7-4-5---------|
e||---------------------|

then

2nd part
e||---------------------|
b||---------------------|
g||---------------------|
d||--8--7-5-2-3--3-7----|
a||--10-8-7-4-5-5-------|
e||---------------------|

3rd part
e||---------------------|
b||---------------------|
g||---------------------|
d||--8--7-5-2-3---------|
a||--10-8-7-4-5---------|
e||---------------------|


Riff-4 x8 (tremolo picking)

e||-----------------|
b||-----------------|
g||-----7---7--7--7-|
d||----8---7--7--7--|
a||--10---8--7--5---|
e||-----------------|
Comments