Gorgoroth - Blod Og Minne Chords & Tabs

 

Blod Og Minne Chords & Tabs

Gorgoroth Chords & Tabs

Version: 1 Type: Tab 0 ratings
1 star 2 stars 3 stars 4 stars 5 stars
comments

Blod Og Minne Tab

Title:		Blod og Minne
Artist:		Gorgoroth
Album:		Twilight of the Idols (2003)
Tab:		Kristoffer Salamonsen

	(Normal Tuning)

. = Palm Mute
* = Overtone, You make the note squele

Riff 1 (tremolo picking)
0:00
e|---------------------------|
B|---------------------------|
G|---------------------------|
D|---------------------------|
A|--5-7-10-7-10-7-8-5-7-8-4--|
E|---------------------------|

e|----------------------------------|
B|----------------------------------|
G|----------------------------------|
D|----------------------------------|
A|--5-7-10-7-10-7-8-5-7-8-----------|
E|------------------------6-10-7-9--|

e|---------------------------|
B|---------------------------|
G|---------------------------|
D|---------------------------|
A|--5-7-10-7-10-7-8-5-7-8-4--|
E|---------------------------|

e|------------------------------------------|
B|------------------------------------------|
G|------------------------------------------|
D|------------------------------------------|
A|--5-7-10-7-10-7-8-5-7-8----------4-8-5-7--|
E|------------------------6-10-7-9----------|


Riff 2 (tremolo picking)
0:22
e|----------|
B|----------|
G|----------|
D|----------|x4
A|--8\7--7--|
E|--6-6--5--|


| Riff 1	(0:44)
| Riff 2	(1:06)

[ Tab from: http://www.guitartabs.cc/tabs/g/gorgoroth/blod_og_minne_tab.html ]
Riff 3a (tremolo picking)
1:27
e|----------------------------------|
B|----------------------------------|
G|----------------------------------|
D|----------------------------------|x2
A|--9-8--9--8--2--8---9-11-14-------|
E|--7-6--7--6--0--7\6-7--9-12-------|

Riff 3b
e|-------------------------------------------------------|
B|-------------------------------------------------------|
G|-------------------------------------------------------|
D|-------------------------------------------------------|
A|-999-111111-121212-141414-121212-141414-161616-171717--|
E|-777--9-9-9-101010-121212-101010-121212-141414-151515--|
   .................................................

Riff 4 - Backup for the drums, low vol. (tremolo picking)
1:43
e|-----------|
B|-----------|
G|--7-5-3-6--|
D|-----------|x4
A|-----------|
E|-----------|

Riff 5 
2:10
e|------------------------------------|
B|------------------------------------|
G|--7------7------------------6-------|
D|--7------7----5------3------6-------|x4
A|--5-0000-5-00-3-3333-1-1111-4-4444--|
E|------------------------------------|
      ....   ..   ....   ....   ....

Riff 6
2:38
e|-----------------------------------|
B|-----------------------------------|
G|--7------6-7-6h7-7------6-7-7*-----|
D|--7------6-7-----7------6-7----7*--|
A|--5-5555-4-5-----5-5555-4-5--------|
E|-----------------------------------|

e|-----|
B|-----|
G|-----|
D|--6--|
A|--4--|
E|-----|

...
Comments