Goodshirt - Sophie Chords & Tabs

 

Sophie Chords & Tabs

Goodshirt Chords & Tabs

Version: 1 Type: Tab 0 ratings
1 star 2 stars 3 stars 4 stars 5 stars
comments

Sophie Tab

                  GOODSHIRT
                                 (SOPHIE)
GUITAR TABS

E---------3-----4----5----5--5--5--]
A---------3-----4----5----5--5--5--]
D---------2-----3----4----4--4--4--]        REPEAT OVER AGAIN
G-------2-----3-----4----4--4--4---]
B----------------------------------]
E----------------------------------]

keep
doing 
this
over
again
until
you
get
it
right

               elvis presely(jailhouse rock)
[ Tab from: http://www.guitartabs.cc/tabs/g/goodshirt/sophie_tab.html ]
E-------2/3--2/3------------2----2--------------------2----2/3---
A-----------------3---3-------3----3------------3-------3--------
D------------------4---4--------4----4---4--------4-------4------
G--------------------5--5------------------5--------5------------
B--------------------------------------------6-------------------
E----------------------------------------------------------------

thats it

i think that is right
email me if i am
whats_da_name@hotmail.com
Comments