Goodshirt - How Will I See You Chords & Tabs

 

How Will I See You Chords & Tabs

Goodshirt Chords & Tabs

Version: 1 Type: Tab 0 ratings
1 star 2 stars 3 stars 4 stars 5 stars
comments

How Will I See You Tab

   
GOODSHIRT - How Will I See You
off their album "Fiji Baby"

Tabbed by: Jevon ( http://www.jevon.org )
Email: jevon@jevon.org

This is my first tab, so feel free to leave comments :) It's a pretty simple
song once you know the chords.

Tuning: Standard

Intro:
   B6            A6           B6            A6
e|------------------------------------------------------|
B|---------9-8-----------7------------9-8-----------7---|
G|-------8-------------6------------8-------------6-----|
D|-----9-------------7------------9-------------7-------|
A|---9-------------7------------9-------------7---------|
E|-7-------------5---------6--7-------------5---------6-|

   B6            A6           B6            A5
e|------------------------------------------------------|
B|---------9-8-----------7------------9-8---------------|
G|-------8-------------6------------8-------------------|
D|-----9-------------7------------9---------7-----------|
A|---9-------------7------------9-----------7-----------|
E|-7-------------5---------6--7-------------5-----------|   
[ Tab from: http://www.guitartabs.cc/tabs/g/goodshirt/how_will_i_see_you_tab.html ]
Verse:
   (guitar 1)          (guitar 2)
   E5   B5   E5   B5   [1]
   E5   B5   E5   B5   [2]
   A5                  [3]
   C5                  [4]
   G5
   
   [1]              [2]                   [3] (Cm)    [4] G
e|----------------|---------------------|--------8--|------3--|
B|----------------|---------------------|-------8---|-----3---|
G|----------------|---------------------|------8----|----4----|
D|----------------|---------------------|----10-----|---5-----|
A|----------------|---------------------|--10-------|--5------|
E|-7-7-7-7/8\7-0--|-7-7-7-7/8\7-11---5--|-8---------|-3-------|

verse outro:

e|-------------------------|
B|-------------------------|
G|-------------------------|
D|-----------------9-10-9--|
A|---------8-10-12---------|
E|-8-10-11-----------------|

repeat verse again, but then at the end play this:

e|--------------------------------------------------------------------|
B|--------------------------------------------------------------------|
G|-----------------9-10-9----------------------------9-10-9-----------|
D|---------8-10-12----------8----------------8-10-12----------8-------|
A|------11----------------------8---------11----------------------8---|
E|-8-10------------------------------8-10-----------------------------|

e|-------------------------|
B|-------------------------|
G|-------------------------|
D|-----------------9-10-9--|
A|---------8-10-12---------|
E|-8-10-11-----------------|

then play the intro once more
then the verse

then the intro to end

| /  slide up
| \  slide down
===============================================================================
Comments