Goodshirt - Fiji Baby Chords & Tabs

 

Fiji Baby Chords & Tabs

Goodshirt Chords & Tabs

Version: 1 Type: Tab 0 ratings
1 star 2 stars 3 stars 4 stars 5 stars
comments

Fiji Baby Tab

   
Song: Fiji Baby
Artist: Goodshirt
Album: Fiji Baby (2004), EMI Records
Tabbed By: Dominic Scheirlinck 

The album recording is a semitone down, in Eb.
I'm going to treat it as if it were in standard E,
so the chords here are right for the apparant tuning.


Intro:

e:-----------------|
B:-----------------|
G:-----------------|
D:-----------------|
A:-----------------|
E:-3-3-3-3-2-2-2-0-|


Verse:

   D       Gmaj7   A   A6  A   A6
E:-2-2-2-2-2-2-2-2-0-0-0-0-0-0-0-0-|
B:-3-3-3-3-3-3-3-3-2-2-2-2-2-2-2-2-|
G:-2-2-2-2-0-0-0-0-2-2-2-2-2-2-2-2-|
D:-0-0-0-0-0-0-0-0-2-2-4-4-2-2-4-0-|	Repeat seven times
A:-----------------0-0-0-0-0-0-0-0-|
E:---------------------------------|


Then:

   D
E:-2-2-2-2-2-2-2-2-2-2-2-2-2-2-2-2-|
B:-3-3-3-3-3-3-3-3-3-3-3-3-3-3-3-3-|
G:-2-2-2-2-2-2-2-2-2-2-2-2-2-2-2-2-|
D:-0-0-0-0-0-0-0-0-0-0-0-0-0-0-0-0-|
A:---------------------------------|
E:---------------------------------|


Which leads into
Chorus:

   D               G       A
E:-5-5-5-5-5-5-5-5-3-3-3-3-5-5-5-5-|
B:-7-7-7-7-7-7-7-7-3-3-3-3-5-5-5-5-|
G:-7-7-7-7-7-7-7-7-4-4-4-4-6-6-6-6-|
D:-7-7-7-7-7-7-7-7-5-5-5-5-7-7-7-7-|
A:-5-5-5-5-5-5-5-5-5-5-5-5-7-7-7-7-|
E:-----------------3-3-3-3-5-5-5-5-|
[ Tab from: http://www.guitartabs.cc/tabs/g/goodshirt/fiji_baby_tab.html ]
   D               G
E:-5-5-5-5-5-5-5-5-3-3-3-3-3-3-3-3-|
B:-7-7-7-7-7-7-7-7-3-3-3-3-3-3-3-3-|
G:-7-7-7-7-7-7-7-7-4-4-4-4-4-4-4-4-|
D:-7-7-7-7-7-7-7-7-5-5-5-5-5-5-5-5-|
A:-5-5-5-5-5-5-5-5-5-5-5-5-5-5-5-5-|
E:-----------------3-3-3-3-3-3-3-3-|

   Bm              A   A6  A   A6  A
E:-2-2-2-2-2-2-2-2-0-0-0-0-0-0-0-0-0-|
B:-3-3-3-3-3-3-3-3-2-2-2-2-2-2-2-2-2-|
G:-4-4-4-4-4-4-4-4-2-2-2-2-2-2-2-2-2-|
D:-4-4-4-4-4-4-4-4-2-2-4-4-2-2-4-4-2-|
A:-2-2-2-2-2-2-2-2-0-0-0-0-0-0-0-0-0-|
E:-----------------------------------|

End the song on D.


-----

When we went to Hamilton I said
"Just pretend it's a holiday" and you said
"Yep, I'll just pretend it's Fiji baby."

You drive me up the wall sometimes you say
"It's better if we spend some time away"
In the middle of ... something break down

So come on now, it's not a race we'll catch up when the end is near.
Let's fall away and disappear again.

You're the one I want to say
That I always want to stay with you.
When this world's about to end, you pull me through.

So come on now, it's not a race we'll catch up when the end is near.
Let's fall away and disappear again.
So come on now, it's not a race we'll catch up when the end is near.
Let's fall away and disappear again.

So come on now.
Come on now.
So come on now.
Now, now, now, now.

[Instrumental]

So come on now, it's not a race we'll catch up when the end is near.
Let's fall away and disappear again.
So come on now, it's not a race we'll catch up when the end is near.
Let's fall away and disappear again.
Comments