Goodnight Nurse - My Only Chords & Tabs

 

My Only Chords & Tabs

Goodnight Nurse Chords & Tabs

Version: 2 Type: Tab

My Only Tab

INTRO:
e---------------------------------------------------------------|
B-5-0-5-0-8-0-7-0-5-5-8-7--8-0-8-0-7-0-5-0-7-0-7-0-5-0-4-0------|
G------------------5-5-5-5--------------------------------------|
D---------------------------------------------------------------|
A---------------------------------------------------------------|
E---------------------------------------------------------------|X4, first time palm muted

e-------------------------------------------------------------------------|
B-------------------------------------------------------------------------|
G--------------------5-5-5-5-5-5-5-5---------------------4-4-4-4-4-4-4-4--|
D--2-2-2-2-2-2-2-2---5-5-5-5-5-5-5-5---5-5-5-5-5-5-5-5---4-4-4-4-4-4-4-4--|
A--2-2-2-2-2-2-2-2---3-3-3-3-3-3-3-3---5-5-5-5-5-5-5-5---2-2-2-2-2-2-2-2--|
E--2-2-2-2-2-2-2-2---------------------5-5-5-5-5-5-5-5--------------------|
Palm Muted X4, on last play the 4-2 part once

e-------------------------------------------------------------------------|
B-------------------------------------------------------------------------|
G--------------------5-5-5-5-5-5-5-5---------------------4-4-4-4-4-4-4-4--|
D--2-2-2-2-2-2-2-2---5-5-5-5-5-5-5-5---5-5-5-5-5-5-5-5---4-4-4-4-4-4-4-4--|
A--2-2-2-2-2-2-2-2---3-3-3-3-3-3-3-3---5-5-5-5-5-5-5-5---2-2-2-2-2-2-2-2--|
E--2-2-2-2-2-2-2-2---------------------5-5-5-5-5-5-5-5--------------------|
x2,

e---------------------------------------------------------------|
B-5-0-5-0-8-0-7-0-5-5-8-7--8-0-8-0-7-0-5-0-7-0-7-0-5-0-4-0------|
G------------------5-5-5-5--------------------------------------|
D---------------------------------------------------------------|
A---------------------------------------------------------------|
E---------------------------------------------------------------|
[ Tab from: http://www.guitartabs.cc/tabs/g/goodnight_nurse/my_only_tab_ver_2.html ]
e-------------------------------------------------------------------------|
B-------------------------------------------------------------------------|
G--------------------5-5-5-5-5-5-5-5---------------------4-4-4-4-4-4-4-4--|
D--2-2-2-2-2-2-2-2---5-5-5-5-5-5-5-5---5-5-5-5-5-5-5-5---4-4-4-4-4-4-4-4--|
A--2-2-2-2-2-2-2-2---3-3-3-3-3-3-3-3---5-5-5-5-5-5-5-5---2-2-2-2-2-2-2-2--|
E--2-2-2-2-2-2-2-2---------------------5-5-5-5-5-5-5-5--------------------|
x6 Palm Muted

e-------------------------------------------------------------------------|
B-------------------------------------------------------------------------|
G--------------------5-5-5-5-5-5-5-5---------------------4-4-4-4-4-4-4-4--|
D--2-2-2-2-2-2-2-2---5-5-5-5-5-5-5-5---5-5-5-5-5-5-5-5---4-4-4-4-4-4-4-4--|
A--2-2-2-2-2-2-2-2---3-3-3-3-3-3-3-3---5-5-5-5-5-5-5-5---2-2-2-2-2-2-2-2--|
E--2-2-2-2-2-2-2-2---------------------5-5-5-5-5-5-5-5--------------------|
x2

Solo thing
e---------------------------------------------|
B---------------------------------------------|
G---------------------------------------------|
D---------------------------9--9--------------|
A-12--10---------12--10---------10--12--10--9-|
E---------9--10-------------------------------|

With Solo
e-------------------------------------------------------------------------|
B-------------------------------------------------------------------------|
G--------------------5-5-5-5-5-5-5-5---------------------4-4-4-4-4-4-4-4--|
D--2-2-2-2-2-2-2-2---5-5-5-5-5-5-5-5---5-5-5-5-5-5-5-5---4-4-4-4-4-4-4-4--|
A--2-2-2-2-2-2-2-2---3-3-3-3-3-3-3-3---5-5-5-5-5-5-5-5---2-2-2-2-2-2-2-2--|
E--2-2-2-2-2-2-2-2---------------------5-5-5-5-5-5-5-5--------------------|
Palm Muted

e----------------------------------------------------------------------|
B----------------------------------------------------------------------|
G----5-5-5-5-5-5-5-5-5-5-5-5-5-5-5-5-----------------------------------|
D----5-5-5-5-5-5-5-5-5-5-5-5-5-5-5-5---2-2-2-2-2-2-2-2-2-2-2-2-2-2-----|
A----3-3-3-3-3-3-3-3-3-3-3-3-3-3-3-3---2-2-2-2-2-2-2-2-2-2-2-2-2-2-----|
E--------------------------------------2-2-2-2-2-2-2-2-2-2-2-2-2-2-----|
Palm Muted

e-------------------------------------------------------------------------|
B-------------------------------------------------------------------------|
G--------------------5-5-5-5-5-5-5-5---------------------4-4-4-4-4-4-4-4--|
D--2-2-2-2-2-2-2-2---5-5-5-5-5-5-5-5---5-5-5-5-5-5-5-5---4-4-4-4-4-4-4-4--|
A--2-2-2-2-2-2-2-2---3-3-3-3-3-3-3-3---5-5-5-5-5-5-5-5---2-2-2-2-2-2-2-2--|
E--2-2-2-2-2-2-2-2---------------------5-5-5-5-5-5-5-5--------------------|
x3