Good Riddance - Shadows Of Defeat Chords & Tabs

 

Shadows Of Defeat Chords & Tabs

Good Riddance Chords & Tabs

Version: 1 Type: Bass Tab 0 ratings
1 star 2 stars 3 stars 4 stars 5 stars
comments

Shadows Of Defeat Bass Tab

SHADOW OF DEFEAT - Good Riddance

By: Freakizoid

< = strum     
<< = fast strum

(Intro)
G|---------------------------------------------------------------|
D|---------------------------------------------------------------|
A|9---7---4----9---7---4----9---7---4----2----4---2---12--12---7-|
E|---------------------------------------------------------------|

G|---------------------------------------------------------------|
D|---------------------------------------------------------------|
A|9---7---4----7---9---7----4---7---9----7----4---7---9--7---4--7|
E|---------------------------------------------------------------|

G|---------------------------------------------------------------|
D|---------------------------------------------------------------|
A|2---4---2----12---12---7---9-----9>>---------------------------|
E|---------------------------------------------------------------|

These walls keep closing in....(Verse)
G|---------------------------------------------------------------|
D|---------------------------------------------------------------|
A|---------55--777--9>>------------------------------------------|
E|--2>--55-------------------------------------------------------|

My touch the kiss of death...(ChorusPart1)
G|---------------------------------------------------------------|
D|---------------------------------------------------------------|
A|2>---5>-------12>--14>--11>------------------------------------|
E|---------------------------------------------------------------|

Why line up to conform...(ChorusPart2)
G|---------------------------------------------------------------|
D|---------------------------------------------------------------|
A|2>---5>-------------9-9-9--------------------------------------|
E|----------5>---0>----------------------------------------------|

Song Format
-----------
Intro
Verse x2
ChorusPart1
ChorusPart2
Verse x2
ChorusPart1
ChorusPart2
Verse x4
ChorusPart1
ChorusPart2


===========

SHADOWS OF DEFEAT - Good Riddance

By:FRANCESCO MARRONE  E-MAIL:MARRONE.FRANCESCO@TIN.IT
[ Tab from: http://www.guitartabs.cc/tabs/g/good_riddance/shadows_of_defeat_btab.html ]
INTRO-Ax2           INTRO-Bx1  VERSEx2    '=play x10   "=play x20
G|------------------|----------|----------------------|
D|-------'---'---'--|---'------|----------------------|
A|---'--5---0---7---|--9----'--|---"--55---77------'--|
E|--2---------------|------2---|--2-----5----77---2---|

CHORUSx1     ^=play x8         L=let ring
G|--------------------------------------------|
D|---'---'------------'---'---'---------------|THEN PLAY VERSEx2,
A|--2---5----^------11---2---5----'------999--|CHORUSx1 AND VERSEx4
E|----------5---77---------------5---0L-------|

BRIDGEx1   play extra fast!
G|--------------------|
D|--------------------|THEN PLAY CHORUSx1
A|--9999999999999999--|
E|--------------------|

AWESOME SONG AND FUNNY BASS LINES!
12/1/2000


===========


SHADOWS OF DEFEAT - Good Riddance

By: jamesDARDIS
    punk_phase@hotmail.com

> = STRUM

  INTRO
G|---------------------------------------------------------------------------|
D|-----O>-----------------------O>-----------------------4>*-----------------|
A|---------O>-----------------------O>---------------------------------------|
E|-2>----------O>--2--2--O--2>----------O>--2--2--O--2>----------------------|
  
  VERSE
G|---------------------------------------------------------------------------|
D|------------------------------------------------------O-O-----2-2----------|
A|----------------------------------------------------------O-O-----2-2------|
E|-2-2-2-2-2-2-2-2-2-2-2-O-2-2-2-2-2-2-2-2-2-2-2-2-2-2-O----------------2>---|
  "THESE WALLS KEEP.."                              "...WHOA IT'S TIME.."
   (x2)

  CHORUS
G|---------2>-4-4-4-1>-------------------------------------------------------|
D|------O>------------------O>-----------------------------------------------|
A|-2>-4----------------2>-4----O>--------------------------------------------|
E|--------------------------------O>--2--2--O---{2--2--2}*-------------------|
  "MY TOUCH.."         "WHY LINE UP.."           *LAST TIME PLAY LIKE THIS

  SONG PROGRESSION: 
  INTRO
  VERSE (X2)
  CHORUS
  VERSE (X2)
  CHORUS
  BRIDGE (PLAY LIKE VERSE)
  VERSE (X2)
  CHORUS
Comments