Good Riddance - Mother Superior Chords & Tabs

 

Mother Superior Chords & Tabs

Good Riddance Chords & Tabs

Version: 2 Type: Bass Tab 0 ratings
1 star 2 stars 3 stars 4 stars 5 stars
comments

Mother Superior Bass Tab

   
--------------------------------------------------------
MOTHER SUPERIOR / Good Riddance
--------------------------------------------------------

tabbed by Carlos Pino

G-|-----------------------------------------------|
D-|-7-7-7-7-7-7-7-7-9-9-9-9-9-9-9-9---|
A-|-5-5-5-5-5-5-5-5-7-7-7-7-7-7-7-7---|
E-|-----------------------------------------------|

G-|----------------------------------------------------------------------------------|
D-|--------------------------------------------------------------------------------|
A-|-------------------------------------------12-12-12-12-12-12-12-12-|
E-|-5-5-5-5-5-5-5-5-5-5-5-5-5-5-5-5-------------------------|

G-|-----------------------------------------------------------------------
D-|-----------------------------------------------------------------------------
A-|------------------------7-7-7-7-7-7-7-5-x-5-x-10-10--9--9-7-7-5-
E-|-5-5-5-5-5-5-5-5------------------------------------------------------

G---------------------------------------------------------------
D-|--------------------------------------------------------------------
A-|-----------------------4-4-4-4-4-4-4-4-5-x-5-x-10-10--9--9-7-7-5-
E-|-5-5-5-5-5-5-5-5-2-2-2-2-2-2-2-2---------------------------

G-|--------------------------------------------------------------------------
D-|-------------------------------------------------------------------------------------
A-|----------------------7-7-7-7-7-7-7-7-5-x-5-x-10-10--9--9-7-7-5-
E-|-5-5-5-5-5-5-5-5-------------------------------------------------------

G-|-----------------------------------------------------------------|
D-|---------------------------------------------------------------------------------|
A-|--------------------------------------------4-4-4-4-4-4-4-4-5-5-5-5-5-5-5-5-5-5-5-5-5-5-5-5-|
E-|-5-5-5-5-5-5-5-5-2-2-2-2-2-2-2-2---------------------------------|

G-|---------------------------------------------------------------------------------
D-|--------------------------------------------------------------------------------
A-|-------------------------------------------------------------------5-x-5-x-5-4-2--
E-|-5-5-5-5-5-5-5-5-0-0-0-0-0-0-0-0-2-2-2-2-2-2-2-2-------------------
[ Tab from: http://www.guitartabs.cc/tabs/g/good_riddance/mother_superior_btab_ver_2.html ]
G-|--------------------------------------------------------------------------------------|
D-|---------------------------------------------------------------------------------------|
A-|------------------------------------------------------------------5-x-5-x-5-4-2--|
E-|-5-5-5-5-5-5-5-5-0-0-0-0-0-0-0-0-2-2-2-2-2-2-2-2----------------|

G-|--------------------------------------------------------------------------------------------------
D-|-------------------------------------------------------------------------------------------------
A-|----------------------7-7-7-7-7-7-7-7-7-7-7-7-7-7-7-5-x-5-x-10-10--9--9-7-7-5-
E-|-5-5-5-5-5-5-5-5--------------------------------------------------------------------------

G-|----------------------------------------------------------------------
D-|----------------------------------------------------------------------
A-|--------------------------------------------5-x-5-x-10-10--9--9-7-7-5-
E-|-5-5-5-5-5-5-5-5-2-2-2-2-2-2-2-2----------------------------

G-|----------------------------------------------------------------------
D-|----------------------------------------------------------------------
A-|-----------------------7-7-7-7-7-7-7-7-5-x-5-x-10-10--9--9-7-7-5-
E-|-5-5-5-5-5-5-5-5-------------------------------------------

G-|-------------------------------------------------------------------------------------
D-|---------------------------------------------------------------------------------------
A-|--------------------------------------------5-5-5-5-5-5-5-5-5-5-5-5-5-5-5-5-|
E-|-5-5-5-5-5-5-5-5-2-2-2-2-2-2-2-2------------------------------------------

G-|-----------------------------------------------------------|
D-|---------------------------------------------------------------------------------------
A-|-3-3-3-3-3-3-3-3-3-3-3-3-7-7-7-7-7-7-7-7-7-7-7-7-7-7-7-7-7-|
E-|-----------------------------------------------------------|

G-|----------------------------------------------------------------------
D-|---------------------------------------------------------------------
A-|--------------------------------------------7-7-7-7-5-5-5-5-
E-|-5-5-5-5-5-5-5-5-5-5-5-5-5-5-5-5-----------------

G-|-------------------------------------------------------------------|
D-|------------------------------------------------------------------------------------------|
A-|--------------------------------------------7-7-7-7-5-5-5-5-7-7-7-7-5-5-5-5-7-|
E-|-5-5-5-5-5-5-5-5-5-5-5-5-5-5-5-5--------------------------------------------5-|

--1>---3>-----------------------------
Comments