Good Riddance - Jeanie Chords & Tabs

 

Jeanie Chords & Tabs

Good Riddance Chords & Tabs

Version: 1 Type: Tab 0 ratings
1 star 2 stars 3 stars 4 stars 5 stars
comments

Jeanie Tab

   
Hello, I couldn't find a tab to this song anywhere so I made one myself.
I have double checked that it is correct, so enjoy. Please do not post my tab anywhere
else without my name on it. Yours, Vegard http://www.incognitosmusic.tk

 |Intro
e|--------------------|
B|--------------------|
G|-55555555-7777-9999-|
D|-55555555-7777-9999-|
A|-33333333-5555-7777-|
E|--------------------|
[ Tab from: http://www.guitartabs.cc/tabs/g/good_riddance/jeanie_tab.html ]
 |Verse
e|---------------------------------------------------------------|
B|---------------------------------------------------------------|
G|-5-555555------------------------------------------------------|
D|-5-555555-5-555555-7-7777777777-7-5-3-333333-5-555555-2-222222-|
A|-3-333333-5-555555-7-7777777777-7-5-3-333333-5-555555-2-222222-|
E|----------3-333333-5-5555555555-5-3-1-111111-3-333333-0-000000-|
     ******   ******   **********       ******   ******   ******  
 |Chorus
e|----------------------------------------------------------------|
B|----------------------------------------------------------------|
G|-55555555----------------------------55555555-------------------|
D|-55555555-55555555-77777777-33333333-55555555-55555555-33333333-|
A|-33333333-55555555-77777777-33333333-33333333-55555555-33333333-|
E|----------33333333-55555555-11111111----------33333333-11111111-|
                                                         ********  

 |Solo
e|------------------------------------------------
B|---5-6-8-8-6-8-5-5-6-6-6h8p6-5-5-------5-6-5-6--
G|-5-------------------------------7-5-7----------
D|------------------------------------------------
A|------------------------------------------------
E|------------------------------------------------

----------------------------------8--------------|
-5--5-6-8-8-6-8-5-5-6-6-6h8p6-5-5---8-5-6-5------|
--5-----------------------------------------5----|
-------------------------------------------------|
-------------------------------------------------|
-------------------------------------------------|

 |end on
e|-----
B|-----
G|-5~--
D|-5~--
A|-3~--
E|-----

Order:
Intro
Verse
Chorus
Solo
Chorus

*= Palm Mute
~= Let Ring
h= Hammer on
p= Pull Off
Comments