Good Riddance - Boxing Day Chords & Tabs

 

Boxing Day Chords & Tabs

Good Riddance Chords & Tabs

Version: 1 Type: Tab 0 ratings
1 star 2 stars 3 stars 4 stars 5 stars
comments

Boxing Day Tab

hey. this is my first tab, im pretty sure its right.very simple song, just listen to it
to get it perfect.also, the song sounds good even if you dont have two guitars, since
good riddance only has one anyway. you can go with either of the two choices, but i
prefer sticking with guitar 1 parts only.then again, im more of a rythm person :)
h=Hammer on
p=palm mute
x=times, 2x=two times
*=in this part, to make it authentic, try getting some feedback by either turning your
guitar loud to bein with or switching to lead and slowly letting go of the chord.

INTRO
e|--------------------------------------------------------------------------|
B|--2--2--2--2-----------------------2--h3--2-----2--2--2--2----------------|
G|--------------2---(3x, then)--------------------------------2-------------|
D|--------------------------------------------------------------------------|
A|--------------------------------------------------------------------------|
E|--------------------------------------------------------------------------|

e|-----------0--------------------------------------------------------------|
B|--2--2--------3--2--3-----------------------------------------------------|
G|--------2-----------------------------------------------------------------|
D|--------------------------------------------------------------------------|
A|--------------------------------------------------------------------------|
E|--------------------------------------------------------------------------|

VERSE
e|--------------------------------------------------------------------------|
B|--------------------------------------------------------------------------|
G|------------------------7--6--7--6----------------------------------------|
D|--7--(let ring*)--------7--6--7--6----------------------------------------|
A|--7---------------------5--4--5--4----------------------------------------|
E|--5-----------------------------------------------------------------------|

e|--------------------------------------------------------------------------|
B|--------------------------------------------------------------------------|
G|--------------------------------7-----------------------------------------|
D|--7p------------7--4p--4--------7-----------------------------------------|
A|--7p------------7--4p--4--------5--(8x)----------reapeat------------------|
E|--5p-(3x)-------5--2p--2-(3x)---------------------------------------------|

BREAKDOWN (play this part nirvana smells like teen spirit style)
e|--------------------------------------------------------------------------|
B|--------------------------------------------------------------------------|
G|------------------7-------------------------7p-7p-7-----7-----------------|
D|--7-------9-------7---------7-------9-------7p-7p-7-----7------7----------|
A|--7-------9-------5-(6/7x)--7-------9-------5p-5p-5(3x)-5(3x)--7-let ring*|
E|--5-(4x)--7-(2x)------------5-(4x)--7-(2x)---------------------5----------|
[ Tab from: http://www.guitartabs.cc/tabs/g/good_riddance/boxing_day_tab.html ]
next, repeat VERSE
followed by BREAKDOWN, but play it 4 times.during the second breakdown, guitar 2 goes:
e|--------------------------------0-----------------------------------------|
B|-2-------2--2--h3--2--2------------3--2--3--------------------------------|
G|--2-(6x)----------------2-(4x)--------------------------------------------|
D|--------------------------------------------------------------------------|
A|--------------------------------------------------------------------------|
E|--------------------------------------------------------------------------|
then...

e|--------------------------------------------------------------------------|
B|--2-----------------------------------------------------------------------|
G|--------2-----------------------------------------------------------------|
D|------------------------------------7p------------------------------------|
A|--------------------PICKSLIDE-------7p------------------------------------|
E|------------------------------------5p------------------------------------|

let all these notes ring until you go to the next
e|--------------------------------------------------------------------------|
B|--------------------------------------------------------------------------|
G|--2----2--1---------------------------------------------------------------|
D|---------------0----------------------------------------------------------|
A|-------------------2------------------------------------------------------|
E|--------------------------------------------------------------------------|

e|--------------------------------------------------------------------------|
B|--------------------------------------------------------------------------|
G|---------------------------------7----------------------------------------|
D|--------------------7-----9------7----------------------------------------|
A|----PICKSLIDE-------7-----9------5(9-10x)---------------------------------|
E|--------------------5(4x)-7(6x)-------------------------------------------|

art of BREAKDOWN
e|--------------------------------------------------------------------------|
B|--------------------------------------------------------------------------|
G|-----------------7--------------------------------------------------------|
D|--7-------9------7--------------------------------------------------------|
A|--7-------9------5---let ring---------------------------------------------|
E|--5(4x)---7(2x)-----------------------------------------------------------|

or guitar 2:
e|---------------0---let ring-----------------------------------------------|
B|---2----------------------------------------------------------------------|
G|------2-(4x)--------------------------------------------------------------|
D|--------------------------------------------------------------------------|
A|--------------------------------------------------------------------------|
E|--------------------------------------------------------------------------|
THE END!!!

please email me at synisterseraph13@netscape.net if it sucks or you have questions or comments. thanx!
-paperwxngs
Comments