Good Riddance - A Credit To His Gender Chords & Tabs

 

A Credit To His Gender Chords & Tabs

Good Riddance Chords & Tabs

Version: 2 Type: Bass Tab 0 ratings
1 star 2 stars 3 stars 4 stars 5 stars
comments

A Credit To His Gender Bass Tab

-----------------------------------------------------------------------
             A CREDIT TO HIS GENDER   GOOD RIDDANCE   
-----------------------------------------------------------------------

> MEANS STRUM

INTROx2
G]-------------------]
D]-------------------]
A]-5>-8>----5>-------]
E]-------8>----1>-3>-]

VERSE
G]--------------]
D]--------------]
A]-5>-8-8-------]
E]--------8>-5>-]
[ Tab from: http://www.guitartabs.cc/tabs/g/good_riddance/a_credit_to_his_gender_btab_ver_2.html ]
BRIDGE1
G]-------------]
D]-------------]
A]-------------]
E]-6>-5>-6>-8>-]

VERSE
BRIDGE1
CHORUS
G]--------------------------------------]
D]--------------------------------------]
A]-5-5-8-----5-5-8-----5-5-8------------]
E]-------8-8-------8-8-------8-8-6>-8-8-]

VERSE
BRIDGE1
CHORUS

BRIDGE2
G]-------------]
D]-------------]
A]-5>----------]
E]----8>-6>-5>-]

OUTRO
G]------------------------]
D]------------------------]
A]-5>-4-5-5-5-8>-7-8-10-8-]
E]------------------------]




Comments