Good Matthew - Weapon Chords & Tabs

 

Weapon Chords & Tabs

Good Matthew Chords & Tabs

Version: 1 Type: Tab 0 ratings
1 star 2 stars 3 stars 4 stars 5 stars
comments

Weapon Tab

   
I noticed that there’s no tabs for any of the new Matt Good songs. 
I'm pretty sure I missed some parts, but here's the major parts of the song:

1st part
	D					                                   C
|--------------------------|---------0------------------|
|----------3------------0-|-------------------------0-|
|-------0-----------0-----|------0-------------0-----|
|----4-----------4--------|---4------------4---------|
|-5-----------5-----------|-3-----------3------------|
|--------------------------|----------------------------| 
[ Tab from: http://www.guitartabs.cc/tabs/g/good_matthew/weapon_tab.html ]
	Em9
|-------------------------|---------------------------|
|-------------------------|---------------------------|
|----------0-----------0-|---------0-----------0---|
|-------4-----------4----|------4-----------4------|
|----2-----------2-------|---2-----------2---------|
|-0-----------0----------|-0----------0------------| 

2nd Part:
|----------------------------------------| *only hit the 
|----------------------------------------| open 4th 
|----------------------------------------| string every
|---------H-----------------------0----| fourth time*
|--------0-2--------2--0---2---------|
|--0-0----------------------------------|  H= hammer on

3rd part:
||:C|C|Em|Em:||
|D|D|C|C|Em| (eighth notes)
	
I’m not quite sure of how long each part is played: listen to the song.
Also, the 1st part is repeated at the end. 
Comments