Good Girls Dont Say No - Trinity Chords & Tabs

 

Trinity Chords & Tabs

Good Girls Dont Say No Chords & Tabs

Version: 1 Type: Tab

Trinity Tab

   
Trinity Guitar tabs

Chorus - guitar one with wha x2
e|-------------------|
B|-------------------|
G|-7/14\7-14-7-10-10-|
D|-x--x\x--x-x--x--x-|
A|-5/12\5-12-5--8--8-|
D|-------------------|

Chorus - guitar two x2
e|------------|
B|------------|
G|-7----------|
D|-7-5-8-5-33-|
A|-5-5-8-5-33-|
D|---5-8-5-33-|

Verse - guitar one x2 (second half of verse only)
e|------8-------8----8----8-|
B|-10-10--10-10---10---10---|
G|--------------------------|
D|--------------------------|
A|--------------------------|
D|--------------------------|

Verse - guitar two x4
e|---------|
B|---------|
G|---7-5---|
D|-7-5-3-7-|
A|-5-----5-|
D|---------|
pm--------|

[ Tab from: http://www.guitartabs.cc/tabs/g/good_girls_dont_say_no/trinity_tab.html ]
Chorus - guitar one x2
e|-------------------|
B|-------------------|
G|-7/14\7-14-7-10-10-|
D|-x--x\x--x-x--x--x-|
A|-5/12\5-12-5--8--8-|
D|-------------------|

Chorus - guitar one x2
e|-------------|
B|-8/9\8-11-13-|
G|-x-x-x--x--x-|
D|-5-5-5--8-10-|
A|-------------|
D|-------------|

Chorus - guitar two x4
e|------------|
B|------------|
G|-7----------|
D|-7-5-8-5-33-|
A|-5-5-8-5-33-|
D|---5-8-5-33-|

Bridge - guitar one and two x2
e|----------------------------------------|----|
B|----------------------------------------|----|
G|----------------------------------------|-2~-|
D|-77--777--33--333--22--2-2--00--0h2h3p2-|-2~-|
A|-77--777--33--333--22--2-2--00--0h2h3p2-|-0~-|
D|-77--777--33--333--22--2-2--00--0h2h3p2-|----|