Good Girls Dont Say No - I Dont Feel So Articulate Today Chords & Tabs

 

I Dont Feel So Articulate Today Chords & Tabs

Good Girls Dont Say No Chords & Tabs

Version: 1 Type: Tab 0 ratings
1 star 2 stars 3 stars 4 stars 5 stars
comments

I Dont Feel So Articulate Today Tab

Band - Good Girls Don't Say No
Song - I Don't Feel so Articulate Today
BPM - 120
Website - www.goodgirlsdontsayno.tk
Tuning - Drop D DADGBe
Intro          x4
e|-----|--------------|
B|-----|--------------|
G|-9/8-|---9/8--6-9/8-|
D|-x-x-|-7-x-x--6-x-x-|
A|-7/6-|-7-7/6--4-7/6-|
D|-----|-7------------|

Verse x3 (on the third repeat, stop PM'ing the c#5 chord)
e|-------|
B|-------|
G|-------|
D|-7--11-|
A|-7--11-|
D|-7--11-|
pm------|

Chorus x4
e|--------------|
B|--------------|
G|---9/8--6-9/8-|
D|-7-x-x--6-x-x-|
A|-7-7/6--4-7/6-|
D|-7------------|

Verse x2 (on the second repeat, stop PM'ing the c#5 chord)
e|-------|
B|-------|
G|-------|
D|-7--11-|
A|-7--11-|
D|-7--11-|
pm------|
[ Tab from: http://www.guitartabs.cc/tabs/g/good_girls_dont_say_no/i_dont_feel_so_articulate_today_tab.html ]
Chorus x8
e|--------------|
B|--------------|
G|---9/8--6-9/8-|
D|-7-x-x--6-x-x-|
A|-7-7/6--4-7/6-|
D|-7------------|

Bridge x3
e|----------------------------|---|
B|----------------------------|---|
G|----------------------------|-6-|
D|-7-7-7-7-7-7-9-9-9-9-9-9-11-|-x-|
A|-7-7-7-7-7-7-9-9-9-9-9-9-11-|-4-|
D|-7-7-7-7-7-7-9-9-9-9-9-9-11-|---|

Breakdown (phone call part) x2
e|-------------|-----|
B|-------------|-----|
G|----6~----9~-|-9/8-|
D|-7~-6~-7~-9~-|-x-x-|
A|-7~-4~-7~-7~-|-7/6-|
D|-7~----7~----|-----|

Chorus x8
e|--------------|
B|--------------|
G|---9/8--6-9/8-|
D|-7-x-x--6-x-x-|
A|-7-7/6--4-7/6-|
D|-7------------|

Outro
e|----------------|
B|----------------|
G|-------------6~-|
D|-7-7-7-7-7-0-6~-|
A|-7-7-7-7-7-0-4~-|
D|-7-7-7-7-7-0----|
Comments