Good Girls Dont Say No - Evenstar Chords & Tabs

 

Evenstar Chords & Tabs

Good Girls Dont Say No Chords & Tabs

Version: 1 Type: Tab 0 ratings
1 star 2 stars 3 stars 4 stars 5 stars
comments

Evenstar Tab

   
Band - Good Girls Don't Say No
Song - Evenstar
website - www.goodgirlsdontsayno.tk
Tuning - Drop D DADGBe
No guitar in intro
Verse x2
e|-------------------------------------------------|
B|-------------------------------------------------|
G|---6-5---------6-5---------6-5--------7-----10-9-|
D|-3-6-5-5-6-5-3-6-5-5-6-5-3-6-5-5-6-5--7-7-8-10-9-|
A|-3-4-3-5-6-5-3-4-3-5-6-5-3-4-3-5-6-5--5-7-8-8--7-|
D|-3-----5-6-5-3-----5-6-5-3-----5-6-5----7-8------|

Chorus
e|-----------------------------|
B|-----------------------------|
G|---8---10---8-3-----8---10-9-|
D|-5-8-8-10-5-8-3-3-5-8-8-10-9-|
A|-5-6-8--8-5-6-1-3-5-6-8--8-7-|
D|-5---8----5-----3-5---8------|

Verse x2 (second time around, PM it, though release the PM when you hit the D5)
e|-------------------------------------------------|
B|-------------------------------------------------|
G|---6-5---------6-5---------6-5--------7-----10-9-|
D|-3-6-5-5-6-5-3-6-5-5-6-5-3-6-5-5-6-5--7-7-8-10-9-|
A|-3-4-3-5-6-5-3-4-3-5-6-5-3-4-3-5-6-5--5-7-8-8--7-|
D|-3-----5-6-5-3-----5-6-5-3-----5-6-5----7-8------|
[ Tab from: http://www.guitartabs.cc/tabs/g/good_girls_dont_say_no/evenstar_tab.html ]
Chorus
e|-----------------------------|-------------|
B|-----------------------------|-------------|
G|---8---10---8-3-----8---10-9-|-9~-7~-------|
D|-5-8-8-10-5-8-3-3-5-8-8-10-9-|-9~-7~-88-88-|
A|-5-6-8--8-5-6-1-3-5-6-8--8-7-|-7~-5~-88-88-|
D|-5---8----5-----3-5---8------|-------88-88-|

Bridge x2
e|--------------------------------------|
B|--------------------------------------|
G|-0-7-8-7--0-7-8-7--0-7-8-7--0-7-8--5*-|
D|-0-5-7-8--0-5-7-8--0-5-7-8--0-5-7--5*-|
A|--------------------------------------|
D|--------------------------------------|
pm---------------------------------|

Bridge pt. II
e|-------------------------------------------------------------------------------|
B|-------------------------------------------------------------------------------|
G|-0-7-8-7--0-7-8-7--0-7-8-7--7----0-7-8-7--0-7-8-7--0-7-8-7--7---7---7----------|
D|-0-5-7-8--0-5-7-8--0-5-7-8--7-8--0-5-7-8--0-5-7-8--0-5-7-8--7-8-7-8-7-8-888888-|
A|----------------------------5-8-----------------------------5-8-5-8-5-8-888888-|
D|------------------------------8-------------------------------8---8---8-888888-|
pm-------------------------|      |-------------------------|            |------|

Chorus x2
e|-----------------------------|-------------|
B|-----------------------------|-------------|
G|---8---10---8-3-----8---10-9-|-9~-7~-------|
D|-5-8-8-10-5-8-3-3-5-8-8-10-9-|-9~-7~-8~-5~-|
A|-5-6-8--8-5-6-1-3-5-6-8--8-7-|-7~-5~-8~-5~-|
D|-5---8----5-----3-5---8------|-------8~-5~-|
Comments