Good Girls Dont Say No - Cacinogenic Crush Chords & Tabs

 

Cacinogenic Crush Chords & Tabs

Good Girls Dont Say No Chords & Tabs

Version: 1 Type: Tab 0 ratings
1 star 2 stars 3 stars 4 stars 5 stars
comments

Cacinogenic Crush Tab

   
Band - Good Girls Don't Say No
Song - Carcinogenic Crush
Website - www.goodgirlsdontsayno.tk
Tuning - standard EADGBe

e|----|
B|----|
G|-9~-|
D|-7~-|
A|-9~-| volume swell
E|----|

Intro - guitar 1
e|-------------------------------------------------------------|
B|-------------------------------------------------------------|
G|-----------------------4----------5----------7----9----7-5-4-|
D|-2-22222222-2-22222222-x-22222222-x-22222222-x----x----x-x-x-|
A|-2-22222222-2-22222222-2-22222222-3-22222222-5----7----5-3-2-|
E|-0-00000000-0-00000000---00000000---00000000---00---00-------|
     ********   ********   ********   ********   **   **
Intro - guitar 2
e|-------------------------------------------------------------|
B|-------------------------------------------------------------|
G|-----------------------4----------5----------7----9----7-5-4-|
D|-2-xxxxxxxx-2-xxxxxxxx-x-xxxxxxxx-x-xxxxxxxx-x----x----x-x-x-|
A|-2-xxxxxxxx-2-xxxxxxxx-2-xxxxxxxx-3-xxxxxxxx-5----7----5-3-2-|
E|-0-xxxxxxxx-0-xxxxxxxx---xxxxxxxx---xxxxxxxx---xx---xx-------|


Verse - guitar 1
e|-------------------------------------|
B|-------------------------------------|
G|---5---4---5---4---5---4---5---4-4-7-|
D|-2-5-5-4-2-5-5-4-2-5-5-4-2-5-5-4-x-x-|
A|-2-3-5-2-2-3-5-2-2-3-5-2-2-3-5-2-2-5-|
E|-0---3---0---3---0---3---0---3-------|

Verse - guitar 2
e|-------------------------------------|
B|-------------------------------------|
G|---5-7-4-9-5-7-4-9-5-7-4-9-5-7-4-4-7-|
D|-2-x-x-x-x-x-x-x-x-x-x-x-x-x-x-x-x-x-|
A|-2-3-5-2-7-3-5-2-7-3-5-2-7-3-5-2-2-5-|
E|-0-----------------------------------|

Chorus - guitar 1 x4
e|----------|
B|----------|
G|---5------|
D|-2-5-xxxx-|
A|-2-3-xxxx-|
E|-0---xxxx-|

Chorus - guitar 2 x4
e|----------|
B|----------|
G|---5------|
D|-2-5-2222-|
A|-2-3-2222-|
E|-0---0000-|
       ****

Back to verse
[ Tab from: http://www.guitartabs.cc/tabs/g/good_girls_dont_say_no/cacinogenic_crush_tab.html ]
Bridge - guitar 1
e|-------------------------------------------------------------|
B|-------------------------------------------------------------|
G|-----------------------4----------5----------7----9----7-5-4-|
D|-2-22222222-2-22222222-x-22222222-x-22222222-x----x----x-x-x-|
A|-2-22222222-2-22222222-2-22222222-3-22222222-5----7----5-3-2-|
E|-0-00000000-0-00000000---00000000---00000000---00---00-------|
     ********   ********   ********   ********   **   **
Bridge - guitar 2
e|-------------------------------------------------------------|
B|-------------------------------------------------------------|
G|-----------------------4----------5----------7----9----7-5-4-|
D|-2-xxxxxxxx-2-xxxxxxxx-x-xxxxxxxx-x-xxxxxxxx-x----x----x-x-x-|
A|-2-xxxxxxxx-2-xxxxxxxx-2-xxxxxxxx-3-xxxxxxxx-5----7----5-3-2-|
E|-0-xxxxxxxx-0-xxxxxxxx---xxxxxxxx---xxxxxxxx---xx---xx-------|

Solo - guitar 1 x4
e|---------|
B|---------|
G|---5---4-|
D|-2-5-7-4-|
A|-2-3-7-2-|
E|-0---5---|

Solo - guitar 2
Lead w/wah pedal
e|---------------------------------------------15p12h15p12-------12--|
B|---------------------------------------------------------15p12-15^-|
G|-9-17-14-12--9-17-14-12--9-17-14-12--9-17-14-----------------------|
D|-x--x--x--x--x--x--x--x--x--x--x--x--x--x--x-----------------------|
A|-7-15-12-10--7-15-12-10--7-15-12-10--7-15-12-----------------------|
E|-------------------------------------------------------------------|

Then back to chorus

Outro - guitar 1
e|----------------------------------------------------------------|
B|----------------------------------------------------------------|
G|-----------------------4----------5----------7----9----7-5-4----|
D|-2-22222222-2-22222222-x-22222222-x-22222222-x----x----x-x-x-2~-|
A|-2-22222222-2-22222222-2-22222222-3-22222222-5----7----5-3-2-2~-|
E|-0-00000000-0-00000000---00000000---00000000---00---00-------0~-|
     ********   ********   ********   ********   **   **
Outro - guitar 2
e|----------------------------------------------------------------|
B|----------------------------------------------------------------|
G|-----------------------4----------5----------7----9----7-5-4----|
D|-2-xxxxxxxx-2-xxxxxxxx-x-xxxxxxxx-x-xxxxxxxx-x----x----x-x-x-2~-|
A|-2-xxxxxxxx-2-xxxxxxxx-2-xxxxxxxx-3-xxxxxxxx-5----7----5-3-2-2~-|
E|-0-xxxxxxxx-0-xxxxxxxx---xxxxxxxx---xxxxxxxx---xx---xx-------0~-|
Comments