Good Clean Fun - Good Clean Fun Chords & Tabs

 

Good Clean Fun Chords & Tabs

Good Clean Fun Chords & Tabs

Version: 2 Type: Bass Tab 0 ratings
1 star 2 stars 3 stars 4 stars 5 stars
comments

Good Clean Fun Bass Tab

Artist: Good Clean Fun
Song: Good Clean Fun
Tabbed by: OdaveO


Intro/Chorus:
G-------------------------
D-------------------------
A-----------------------3-
E-3-3--3--3-3--3--3-3--3---

G-------------------------
D-------------------------
A------------------------5
E-3-3--3--3-3--3--3-3--3--

G-------------------------
D-------------------------
A------------------------3
E-3-3--3--3-3--3--3-3--3--

G---------------------
D---------------------
A---------------------
E-3-3--3--3-3--3--3--3

Verse:

G------------------------------------------------
D------------------------------------------------
A----------------3-3-3-------5-5--5--5-5-5--5-5-5
E-7-7--7--7-7--7-------3-3-3---------------------

Pre Chorus:
[ Tab from: http://www.guitartabs.cc/tabs/g/good_clean_fun/good_clean_fun_btab_ver_2.html ]
G----------------------------------
D----------------------------------
A-----------------5-5-5-5----------
E-7--7-7-7--3-3-3---------5-5-5-5-5

G----------------------------------
D----------------------------------
A----------------------------------
E-7--7-7-7--3-3-3-5-5-5-5-5-5-5-5-5

Bridge:( i cant really remember this bit and i aint got my 
        guitar but i think its this)

G-----------------------------------------
D-----------------------------------------
A--------------------------------5-5-5-5-5
E-7-7-7-7-7--3-3-3-3-3-5-5-5-5-5----------

Song Structure
Intro X1
Verse X4
Pre Chorus X2
Chorus X1
Verse X4
Pre Chorus X2
Chorus X1
Bridge X8
Pre Chorus X2
Verse X1


Anyone who has any other good hardcore punk 
tabs feel free to send em me!

posi-dave@out-and-out.co.uk
ICQ:70703362
Comments