Good Charlotte - World Is Black Acoustic Chords & Tabs

 

World Is Black Acoustic Chords & Tabs

Good Charlotte Chords & Tabs

Version: 1 Type: Tab 0 ratings
1 star 2 stars 3 stars 4 stars 5 stars
comments

World Is Black Acoustic Tab

   
-------------------------------------------------------------------------------
   The world is black (acoustic) - Good Charlotte
-------------------------------------------------------------------------------
Tabbed by:Agathe
Email: I tabbed this out from aol sessions, so I'm pretty sure it's    right. I'm new at 
and this is my first tab, so comments are welcome, but no biatches.

Tuning:Eb

   VERSE
eb|---------------------------------------------------------------|
Bb|---------------------------------------------------------------|
Gb|----7- 9- 11- 9-- 7- 9- 11-------7---9---11---9---119----7--9--|
Db|----7  9  11  9-- 7- 9- 11-------7---9---11---9---119----7--9--|
Ab|----5  7  9   7   5  7  9--------5---7---9----7---9-7----5--7--|
Eb|------------ --------------------------------------------------|
[ Tab from: http://www.guitartabs.cc/tabs/g/good_charlotte/world_is_black_acoustic_tab.html ]
   PRE CHORUS
eb|--------------------------------------------------------------------------------------|
Bb|--------------------------------------------------------------------------------------|
Gb|---7-- 4--7-------11---9---7----------------------------------------------------------|
Db|---7-- 4--7---7---11---9---7----------------------------------------------------------|
Ab|---5-- 2--5---7---9--- 7---5----------------------------------------------------------|
Eb|------------- 5-----------------------------------------------------------------------|

   chorus
eb|-----------------------------------------------------------------------------------|
Bb|-----------------------------------------------------------------------------------|
Gb|------------9---4-------------9---7------------------------------------------------|
Db|----4---7---9---4----4---7----9---7------------------------------------------------|
Ab|----4---7---7---2----4---7----7---5------------------------------------------------|
Eb|----2---5------------2---5---------------------------------------------------------|


Order of song:
Verse
pre chorus
chorus
verse
pre chorus
chorus
pre chorus x2
chorus x2
verse
chorus
Comments