Good Charlotte - Walk By Chords & Tabs

 

Walk By Chords & Tabs

Good Charlotte Chords & Tabs

Version: 2 Type: Tab 0 ratings
1 star 2 stars 3 stars 4 stars 5 stars
comments

Walk By Tab

   
-------------------------------------------------------------------------------
			     WALK BY - Good Charlotte
-------------------------------------------------------------------------------

Tabbed by: Moonie
Email: Foley92986@aol.com

Tuning: EADGBe (standard)

This is a really awesome good charlotte song...for the most part it's pretty easy to play....
For a lot of it there's 2 guitars playing....but for some of it only one guitar is....enjoy...

Main Riff

Guitar 1 Plays-
e|---------------------------------------------------------------------------|
B|---------------------------------------------------------------------------|
G|----5---------------5---------------5---------------x-x-x-x----------------|
D|------5-3-3-3h5p0-----5-3-3-3h5p0-----5-3-3-3h5p0---x-x-x-x----------------|
A|-3----------------3---------------3---------------3-x-x-x-x----------------|
E|---------------------------------------------------------------------------|

Guitar 2 comes in later on and plays-
e|---------------------------------------------------------------------------|
B|---------------------------------------------------------------------------|
G|-5-5-5-----------5-5-5------------5-5-5-----------5-5-5--------------------|
D|-5-5-5-5-3-3-3-3-5-5-5-5-3-3-3-3--5-5-5-5-3-3-3-3-5-5-5-5-3-3-3-3----------|
A|-3-3-3-5-3-3-3-3-3-3-3-5-3-3-3-3--3-3-3-5-3-3-3-3-3-3-3-5-3-3-3-3----------|
E|-------3\1-1-1-1-------3-1-1-1-1--------3-1-1-1-1-------3-1-1-1-1----------|


Verse
[ Tab from: http://www.guitartabs.cc/tabs/g/good_charlotte/walk_by_tab_ver_2.html ]
Guitar 2 is silent
Guitar 1 plays-
e|---------------8----------------------8--------------------8---------------|
B|-------------8----------------------8--------------------8-----------------|
G|---------------------------------------------------------------------------|
D|---------------------------------------------------------------------------|
A|------------------------------------------------------------------*Pick----|
E|---------------------------------------------------------------------Scrape|


Chorus

e|-----------------------------------------|
B|-----------------------------------------|
G|-5-5-5-5---------------------------------|
D|-5-5-5-5-7-7-7-7-7-7-5-5-5-5-3-3-3-3-3-3-|
A|-3-3-3-3-7-7-7-7-7-7-5-5-5-5-3-3-3-3-3-3-|
E|---------5-5-5-5-5-5-3-3-3-3-1-1-1-1-1-1-|


Bridge

e|-----------------------------------------|
B|-----------------------------------------|
G|-------------5-5-5-5-5-------------------|
D|-7-7-7-7-7-7-5-5-5-5-5-5-5-5-5-3-3-3-3-3-|
A|-7-7-7-7-7-7-3-3-3-3-3-5-5-5-5-3-3-3-3-3-|
E|-5-5-5-5-5-5-----------3-3-3-3-1-1-1-1-1-|


Solo Thingy

e|---------------------------------------------------------------------------|
B|---------------------------------------------------------------------------|
G|---5---------------5---------------5-------------5-5-7-7-7-9-9-9-9-9-9-9---|
D|-----5-3-3-3h5p0-----5-3-3-3h5p0-----5-3-3-3h5p0-x-x-x-x-x-x-x-x-x-x-x-x---|
A|-3---------------3---------------3---------------3-5-5-5-5-7-7-7-7-7-7-7---|
E|---------------------------------------------------------------------------|

e|---------------------------------------------------------------------------|
B|---------------------------------------------------------------------------|
G|---5---------------5---------------5-------------9h12-9h12-9h12-9h12-9-----|
D|-----5-3-3-3h5p0-----5-3-3-3h5p0-----5-3-3-3h5p0---------------------------|
A|-3---------------3---------------3-----------------------------------------|
E|---------------------------------------------------------------------------|


| /  slide up
| \  slide down
| h  hammer-on
| p  pull-off
| ~  vibrato
| +  harmonic
| x  Mute note

===============================================================================
Comments