Good Charlotte - Walk By Chords & Tabs

 

Walk By Chords & Tabs

Good Charlotte Chords & Tabs

Version: 1 Type: Tab 0 ratings
1 star 2 stars 3 stars 4 stars 5 stars
comments

Walk By Tab

   
-------------------------------------------------------------------------------
			    WALK BY  -  GOOD CHARLOTTE
-------------------------------------------------------------------------------
[ Tab from: http://www.guitartabs.cc/tabs/g/good_charlotte/walk_by_tab.html ]
INTRO:
e|---------------------------------------------------------------------|
B|---------------------------------------------------------------------|
G|-------5-------------------------------------------------------------|
D|-----------5--3-3-3h5p0----------------------------------------------|
A|---3-----------------------------------------------------------------|
E|---------------------------------------------------------------------|
VERSE: just bass
CHORUS:
        c      a       g      f
e|------------------------------------------------------------------------|
B|------------------------------------------------------------------------|
G|------5-----------------------------------------------------------------|
D|------5------7-------5-----3--------------------------------------------|
A|------2------7-------5-----3--------------------------------------------|
E|-------------5-------3-----1--------------------------------------------|
BRIDGE
        a       c      g      f
e|------------------------------------------------------------------------|
B|------------------------------------------------------------------------|
G|--------------5---------------------------------------------------------|
D|------7-------5------5------3-------------------------------------------|
A|------7-------3------5------3-------------------------------------------|
E|------5--------------3------1-------------------------------------------|
you just gotta figure out the way to play it, it's not hard, just listen 
to the song
Okie dokie, thats basicly it, i think its almost %100
i didn't see any tabs for it when i wanted to learn it so i tabbed it myself,
not totally sure for the bridge cuz i didn't listen to that part alot, and
theres spose to be a bit of a solo in there, but hey i did this in 2 mins.
                      ENJOY!
===============================================================================
Comments