Good Charlotte - Walk Away Chords & Tabs

 

Walk Away Chords & Tabs

Good Charlotte Chords & Tabs

Version: 1 Type: Tab 1 rating
1 star 2 stars 3 stars 4 stars 5 stars
comments

Walk Away Tab

   
Song: Walk away (maybe)
Artist: Good Charlotte
Album: The Chronicles Of Life And Death
Tabbed by: Mickey Doyle

Intro

E|----------------------------------|
B|----------------------------------|
G|----------------------------------|
D|-3-3-4-4-8-8-6-6--3-3-4-4-8-8-6-6-|
A|-3-3-4-4-8-8-6-6--3-3-4-4-8-8-6-6-|
E|-1-1-2-2-6-6-4-4--1-1-2-2-6-6-4-4-|

E|--------------------------------------------------------------------|
B|--------------------------------------------------------------------|
G|--------------------------------------------------------------------|
D|-3-3-3-4-4-4--4-8-8-6-6-6-6-6-6-6--3-3-3-4-4-4--4-8-8-6-6-6-6-6-6-6-|
A|-3-3-3-4-4-4--4-8-8-6-6-6-6-6-6-6--3-3-3-4-4-4--4-8-8-6-6-6-6-6-6-6-|
E|-1-1-1-2-2-2--2-6-6-4-4-4-4-4-4-4--1-1-1-2-2-2--2-6-6-4-4-4-4-4-4-4-|

Verse 1

E|-----------------------------------------------------------------|
B|-----------------------------------------------------------------|
G|-----------------------------------------------------------------|
D|-8-8-8-8-8-8-8-8-8-8-8-8-8-8-8-8-6-6-6-6-6-6-6-6-6-6-6-6-6-6-6-6-|
A|-8-8-8-8-8-8-8-8-8-8-8-8-8-8-8-8-6-6-6-6-6-6-6-6-6-6-6-6-6-6-6-6-|
E|-6-6-6-6-6-6-6-6-6-6-6-6-6-6-6-6-4-4-4-4-4-4-4-4-4-4-4-4-4-4-4-4-|

E|-----------------------------------------------------------------|
B|-----------------------------------------------------------------|
G|---------------------------------6-6-6-6-6-6-6-6-6-6-6-6-6-6-6-6-|
D|-4-4-4-4-4-4-4-4-4-4-4-4-4-4-4-4-6-6-6-6-6-6-6-6-6-6-6-6-6-6-6-6-|
A|-4-4-4-4-4-4-4-4-4-4-4-4-4-4-4-4-4-4-4-4-4-4-4-4-4-4-4-4-4-4-4-4-|
E|-2-2-2-2-2-2-2-2-2-2-2-2-2-2-2-2---------------------------------|

(play this part 2x)
E|---------------------------------------------------------|
B|---------------------------------------------------------|
G|-6-6-6-5-5-5-3-3-3-3-3-3-3-3-8-8-8-6-6-6-5-5-5-5-5-5-5-5-|
D|---------------------------------------------------------|
A|-4-4-4-3-3-3-1-1-1-1-1-1-1-1-6-6-6-4-4-4-3-3-3-3-3-3-3-3-|
E|---------------------------------------------------------|

E|-----------------------------------------------------------|
B|-----------------------------------------------------------|
G|-----------------------------------------------------------|
D|-8-8-4-4-8-8-4-4--8-8-4-4-8-8-4-4--8-8-8-4-4-4-8-8-8-4-4-4-|
A|-8-8-4-4-8-8-4-4--8-8-4-4-8-8-4-4--8-8-8-4-4-4-8-8-8-4-4-4-|
E|-6-6-2-2-6-6-2-2--6-6-2-2-6-6-2-2--6-6-6-2-2-2-6-6-6-2-2-2-|
 
Chorus 1

E|-----------------------------------------------------------------|
B|-----------------------------------------------------------------|
G|-6-6-6-6-6-6-6-6-6-6-6-6-6-6-6-6---------------------------------|
D|-6-6-6-6-6-6-6-6-6-6-6-6-6-6-6-6-4-4-4-4-4-4-4-4-4-4-4-4-4-4-4-4-|
A|-4-4-4-4-4-4-4-4-4-4-4-4-4-4-4-4-4-4-4-4-4-4-4-4-4-4-4-4-4-4-4-4-|
E|---------------------------------2-2-2-2-2-2-2-2-2-2-2-2-2-2-2-2-|

E|---------------------------------|
B|---------------------------------|
G|---------------------------------|
D|---------------------------------|
A|-8-8-8-8-8-8-8-8-8-8-8-8-8-8-8-8-|
E|-6-6-6-6-6-6-6-6-6-6-6-6-6-6-6-6-|

E|----------------------------------------------------|
B|----------------------------------------------------|
G|----------------------------------------------------|
D|-3-3-4-4-8-8-6-6---3-3-3-4-4-4--4-8-8-6-6-6-6-6-6-6-|
A|-3-3-4-4-8-8-6-6---3-3-3-4-4-4--4-8-8-6-6-6-6-6-6-6-|
E|-1-1-2-2-6-6-4-4---1-1-1-2-2-2--2-6-6-4-4-4-4-4-4-4-|

Verse 2

(strum it double the time of the first verse) 
E|---------------------------------------------------------|
B|---------------------------------------------------------|
G|---------------------------------------------------------|
D|-8-8-8-8-8-8-8-8-8-8-8-8-8-8-8-8-8-8-8-8-8-8-8-8-8-8-8-8-|
A|-8-8-8-8-8-8-8-8-8-8-8-8-8-8-8-8-8-8-8-8-8-8-8-8-8-8-8-8-|
E|-6-6-6-6-6-6-6-6-6-6-6-6-6-6-6-6-6-6-6-6-6-6-6-6-6-6-6-6-|

E|---------------------------------------------------------|
B|---------------------------------------------------------|
G|---------------------------------------------------------|
D|-6-6-6-6-6-6-6-6-6-6-6-6-6-6-6-6-6-6-6-6-6-6-6-6-6-6-6-6-|
A|-6-6-6-6-6-6-6-6-6-6-6-6-6-6-6-6-6-6-6-6-6-6-6-6-6-6-6-6-|
E|-4-4-4-4-4-4-4-4-4-4-4-4-4-4-4-4-4-4-4-4-4-4-4-4-4-4-4-4-|

E|---------------------------------------------------------|
B|---------------------------------------------------------|
G|---------------------------------------------------------|
D|-4-4-4-4-4-4-4-4-4-4-4-4-4-4-4-4-4-4-4-4-4-4-4-4-4-4-4-4-|
A|-4-4-4-4-4-4-4-4-4-4-4-4-4-4-4-4-4-4-4-4-4-4-4-4-4-4-4-4-|
E|-2-2-2-2-2-2-2-2-2-2-2-2-2-2-2-2-2-2-2-2-2-2-2-2-2-2-2-2-|

E|---------------------------------------------------------|
B|---------------------------------------------------------|
G|---------------------------------------------------------|
D|-6-6-6-6-6-6-6-6-6-6-6-6-6-6-6-6-6-6-6-6-6-6-6-6-6-6-6-6-|
A|-6-6-6-6-6-6-6-6-6-6-6-6-6-6-6-6-6-6-6-6-6-6-6-6-6-6-6-6-|
E|-4-4-4-4-4-4-4-4-4-4-4-4-4-4-4-4-4-4-4-4-4-4-4-4-4-4-4-4-|

(play this part 2x)
E|---------------------------------------------------------|
B|---------------------------------------------------------|
G|-6-6-6-5-5-5-3-3-3-3-3-3-3-3-8-8-8-6-6-6-5-5-5-5-5-5-5-5-|
D|---------------------------------------------------------|
A|-4-4-4-3-3-3-1-1-1-1-1-1-1-1-6-6-6-4-4-4-3-3-3-3-3-3-3-3-|
E|---------------------------------------------------------|

E|----------------------------------|
B|----------------------------------|
G|----------------------------------|
D|-3-3-4-4-8-8-6-6--3-3-4-4-8-8-6-6-|
A|-3-3-4-4-8-8-6-6--3-3-4-4-8-8-6-6-|
E|-1-1-2-2-6-6-4-4--1-1-2-2-6-6-4-4-|

Chorus 2
[ Tab from: http://www.guitartabs.cc/tabs/g/good_charlotte/walk_away_tab.html ]
E|-----------------------------------------------------------------|
B|-----------------------------------------------------------------|
G|-6-6-6-6-6-6-6-6-6-6-6-6-6-6-6-6---------------------------------|
D|-6-6-6-6-6-6-6-6-6-6-6-6-6-6-6-6-4-4-4-4-4-4-4-4-4-4-4-4-4-4-4-4-|
A|-4-4-4-4-4-4-4-4-4-4-4-4-4-4-4-4-4-4-4-4-4-4-4-4-4-4-4-4-4-4-4-4-|
E|---------------------------------2-2-2-2-2-2-2-2-2-2-2-2-2-2-2-2-|

E|---------------------------------|
B|---------------------------------|
G|---------------------------------|
D|---------------------------------|
A|-8-8-8-8-8-8-8-8-8-8-8-8-8-8-8-8-|
E|-6-6-6-6-6-6-6-6-6-6-6-6-6-6-6-6-|

E|-----------------|
B|-----------------|
G|-----------------|
D|-3-3-4-4-8-8-6-6-|
A|-3-3-4-4-8-8-6-6-|
E|-1-1-2-2-6-6-4-4-|

E|-----------------------------------------------------------------|
B|-----------------------------------------------------------------|
G|-6-6-6-6-6-6-6-6-6-6-6-6-6-6-6-6---------------------------------|
D|-6-6-6-6-6-6-6-6-6-6-6-6-6-6-6-6-4-4-4-4-4-4-4-4-4-4-4-4-4-4-4-4-|
A|-4-4-4-4-4-4-4-4-4-4-4-4-4-4-4-4-4-4-4-4-4-4-4-4-4-4-4-4-4-4-4-4-|
E|---------------------------------2-2-2-2-2-2-2-2-2-2-2-2-2-2-2-2-|

E|---------------------------------|
B|---------------------------------|
G|---------------------------------|
D|---------------------------------|
A|-8-8-8-8-8-8-8-8-8-8-8-8-8-8-8-8-|
E|-6-6-6-6-6-6-6-6-6-6-6-6-6-6-6-6-|

E|----------------------------------------------------|
B|----------------------------------------------------|
G|----------------------------------------------------|
D|-3-3-4-4-8-8-6-6---3-3-3-4-4-4--4-8-8-6-6-6-6-6-6-6-|
A|-3-3-4-4-8-8-6-6---3-3-3-4-4-4--4-8-8-6-6-6-6-6-6-6-|
E|-1-1-2-2-6-6-4-4---1-1-1-2-2-2--2-6-6-4-4-4-4-4-4-4-|

Bridge
(starts off with a piano part)

E|-----------------------------------------------------------------|
B|-----------------------------------------------------------------|
G|-----------------------------------------------------------------|
D|-8-8-8-8-8-8-8-8-8-8-8-8-8-8-8-8-6-6-6-6-6-6-6-6-6-6-6-6-6-6-6-6-|
A|-8-8-8-8-8-8-8-8-8-8-8-8-8-8-8-8-6-6-6-6-6-6-6-6-6-6-6-6-6-6-6-6-|
E|-6-6-6-6-6-6-6-6-6-6-6-6-6-6-6-6-4-4-4-4-4-4-4-4-4-4-4-4-4-4-4-4-|

E|------------------|
B|------------------|
G|------------------|
D|-4--4--4--3--3--3-|
A|-4--4--4--3--3--3-|
E|-2--2--2--1--1--1-|

E|-----------------------------------------------------------------|
B|-----------------------------------------------------------------|
G|-----------------------------------------------------------------|
D|-8-8-8-8-8-8-8-8-8-8-8-8-8-8-8-8-6-6-6-6-6-6-6-6-6-6-6-6-6-6-6-6-|
A|-8-8-8-8-8-8-8-8-8-8-8-8-8-8-8-8-6-6-6-6-6-6-6-6-6-6-6-6-6-6-6-6-|
E|-6-6-6-6-6-6-6-6-6-6-6-6-6-6-6-6-4-4-4-4-4-4-4-4-4-4-4-4-4-4-4-4-|

Chorus

E|-----------------------------------------------------------------|
B|-----------------------------------------------------------------|
G|-----------------------------------------------------------------|
D|-6-6-6-6-6-6-6-6-6-6-6-6-6-6-6-6---------------------------------|
A|-4-4-4-4-4-4-4-4-4-4-4-4-4-4-4-4-4-4-4-4-4-4-4-4-4-4-4-4-4-4-4-4-|
E|---------------------------------2-2-2-2-2-2-2-2-2-2-2-2-2-2-2-2-|
Pm.[--------------------------------------------------------------]

E|-----------------------------------|
B|-----------------------------------|
G|-----------------------------------|
D|-----------------------------------|
A|-8-8-8-8-8-8-8-8-8-8-8-8-8-8-8-8-8-|
E|-6-6-6-6-6-6-6-6-6-6-6-6-6-6-6-6-6-|
Pm.[--------------------------------]

E|-----------------|
B|-----------------|
G|-----------------|
D|-3-3-4-4-8-8-6-6-|
A|-3-3-4-4-8-8-6-6-|
E|-1-1-2-2-6-6-4-4-|

E|-----------------------------------------------------------------|
B|-----------------------------------------------------------------|
G|-6-6-6-6-6-6-6-6-6-6-6-6-6-6-6-6---------------------------------|
D|-6-6-6-6-6-6-6-6-6-6-6-6-6-6-6-6-4-4-4-4-4-4-4-4-4-4-4-4-4-4-4-4-|
A|-4-4-4-4-4-4-4-4-4-4-4-4-4-4-4-4-4-4-4-4-4-4-4-4-4-4-4-4-4-4-4-4-|
E|---------------------------------2-2-2-2-2-2-2-2-2-2-2-2-2-2-2-2-|

E|---------------------------------|
B|---------------------------------|
G|---------------------------------|
D|---------------------------------|
A|-8-8-8-8-8-8-8-8-8-8-8-8-8-8-8-8-|
E|-6-6-6-6-6-6-6-6-6-6-6-6-6-6-6-6-|

E|-----------------|
B|-----------------|
G|-----------------|
D|-3-3-4-4-8-8-6-6-|
A|-3-3-4-4-8-8-6-6-|
E|-1-1-2-2-6-6-4-4-|

E|-----------------------------------------------------------------|
B|-----------------------------------------------------------------|
G|-6-6-6-6-6-6-6-6-6-6-6-6-6-6-6-6---------------------------------|
D|-6-6-6-6-6-6-6-6-6-6-6-6-6-6-6-6-4-4-4-4-4-4-4-4-4-4-4-4-4-4-4-4-|
A|-4-4-4-4-4-4-4-4-4-4-4-4-4-4-4-4-4-4-4-4-4-4-4-4-4-4-4-4-4-4-4-4-|
E|---------------------------------2-2-2-2-2-2-2-2-2-2-2-2-2-2-2-2-|

E|---------------------------------|
B|---------------------------------|
G|---------------------------------|
D|---------------------------------|
A|-8-8-8-8-8-8-8-8-8-8-8-8-8-8-8-8-|
E|-6-6-6-6-6-6-6-6-6-6-6-6-6-6-6-6-|

E|-----------------|
B|-----------------|
G|-----------------|
D|-3-3-4-4-8-8-6-6-|
A|-3-3-4-4-8-8-6-6-|
E|-1-1-2-2-6-6-4-4-|

E|--------------------------------------------------------------------|
B|--------------------------------------------------------------------|
G|--------------------------------------------------------------------|
D|-3-3-3-4-4-4--4-8-8-6-6-6-6-6-6-6--3-3-3-4-4-4--4-8-8-6-6-6-6-6-6-6-|
A|-3-3-3-4-4-4--4-8-8-6-6-6-6-6-6-6--3-3-3-4-4-4--4-8-8-6-6-6-6-6-6-6-|
E|-1-1-1-2-2-2--2-6-6-4-4-4-4-4-4-4--1-1-1-2-2-2--2-6-6-4-4-4-4-4-4-4-|

E|-----------------|
B|-----------------|
G|-----------------|
D|-3-3-4-4-8-8-6-6-|
A|-3-3-4-4-8-8-6-6-|
E|-1-1-2-2-6-6-4-4-|

Comments