Good Charlotte - Waldorf Worldwide Chords & Tabs

 

Waldorf Worldwide Chords & Tabs

Good Charlotte Chords & Tabs

Version: 2 Type: Tab 0 ratings
1 star 2 stars 3 stars 4 stars 5 stars
comments

Waldorf Worldwide Tab

#----------------------------------PLEASE NOTE--------------------------------#
#This file is the author's own work and represents their interpretation of the#
#song. You may only use this file for private study, scholarship, or research.#
#-----------------------------------------------------------------------------#
#-- File created with Instab - http://www.pconline.com/~smcarey/instab.html --#
#-----------------------------------------------------------------------------#

Author/Artist: GOOD CHARLOTTE
Title: WALDORF WORLDWIDE
Album: GOOD CHARLOTTE
Transcribed by: DANNY
Email: DFLYNN1087@YAHOO.COM

 IVE SEEN THESE TABS THE HAVE THEM USE THE 10TH FRET ON THE INTRO BUT THEY ARE WAY OFF IM SURE THIS IS IT I SAW THEM DO IT LIVE ON MTV SO I KNOW ITS RIGHT

INTRO 2 TIMES
[ Tab from: http://www.guitartabs.cc/tabs/g/good_charlotte/waldorf_worldwide_tab_ver_2.html ]
---------------6--------------------6-----------------------------------------
--------------------------6---------------------------------------------------
------------7----7------7---7-----7---7---------------------------------------
----------8-----------8----------8--------------------------------------------
------------------------------------------------------------------------------
------------------------------------------------------------------------------
                                                                              

------------------------------------------------------------------------------
------------------------------------------------------------------------------
------------------------------------------------------------------------------
-----------------10-10-----8--8-8----10-10------------10-10---8--8-8--10-10---
--------8---8-8---8-8------6--6-6-----8--8---8---8-8---8-8----6--6-6---8--8---
--------6---6-6------------------------------6---6-6--------------------------
                                                                              

Comments