Good Charlotte - Waldorf Worldwide Chords & Tabs

 

Waldorf Worldwide Chords & Tabs

Good Charlotte Chords & Tabs

Version: 1 Type: Tab 0 ratings
1 star 2 stars 3 stars 4 stars 5 stars
comments

Waldorf Worldwide Tab

Waldorf Worldwide 
by Good Charlotte
track: #2 on self-titled album
tabbed by: mat mcmanus (munky0911@aol.com)

here is the correct version, sorry but I got a little mixed up,
the guitars are actually tuned down 1/2 step:

intro:
eb|----7--x-----11----9-9-9/11----11--|
Bb|----7--x-----11----9-9-9/11----11--|
Gb|---8---x-----11--9-9-9-9/11----11--|
Db|--9----x--11-11-9--9-9-9/11-11-11--|
Ab|-------x---------------------------|
Eb|-------x---------------------------|

eb|-----------------|
Bb|-----------------|
Gb|----11--9--11----|
Db|-9--11--9--11----|
Ab|-9--9---7--9-----|
Eb|-7---------------|
[ Tab from: http://www.guitartabs.cc/tabs/g/good_charlotte/waldorf_worldwide_tab.html ]
verse: (hit each chord 2 times, i think Benji uses a wah wah)
eb|--7--11--9--11--------|
Bb|--7--11--9--11--------|
Gb|--8--11--9--11--------|
Db|--9--11--9--11--------|
Ab|----------------------|
Eb|----------------------|

chorus: (listen to cd for strumming pattern)
eb|-----------------|
Bb|-----------------|
Gb|-4---------------|
Db|-4--4--2--4------|
Ab|-2--4--2--4------|
Eb|----2--0--2------|

bridge: (listen to cd for strumming patterns)
eb|----------------|
Bb|----------------|
Gb|-------4--2-----|
Db|-2--4--4--2--6--|
Ab|-2--4--2--0--6--|
Eb|-0--2--------4--|

outro:
eb|----------------|
Bb|----------------|
Gb|--4-4-4-4-4-4-4-|
Db|--4-4-4-4-4-4-4-|
Ab|--2-2-2-2-2-2-2-|
Eb|----------------|


email me at Munky0911@aol.com if you have any questions, corrections,
or comments
Comments